Oops, an error
Loading. Please wait.

Fabulous Bass Tab

13 views 1 this week
no commentswrite comment
1 2 3 4 5
3 more votes to show rating
add to favorites
launch autoscroll
font size
0
reset
guitar tuner
Autoscroll
slow
fast
+/-
esc
set tempo
stop
Help us to improve Ultimate-Guitar.com Take our survey!
×
Author
Difficulty
intermediate
[Intro]
G|---------------------------------|---------------------------------|
D|---------------------------------|---------------------------------|
A|---------------------------------|---------------------------------|
E|0-------4---5h7-0-------4---5h7--|0-------4---5h7-0-------4---5h7--|

[Verse 1]
G|---------------------------------|---------------------------------|
D|---------------------------------|---------------------------------|
A|---------------------------------|---------------------------------|
E|0-------4---5h7-0-------4---5h7--|0-------4---5h7-0-------4---5h7--|

G|---------------------------------|---------------------------------|
D|---------------------------------|---------------------------------|
A|--------4---5h7---------4---5h7--|---------------------------------|
E|5---------------5----------------|0-------4---5h7-0-------4---5h7--|

G|---------------------------------|---------------------------------|
D|---------------------------------|---------------------------------|
A|--------0---1---2----------------|---------------------------------|
E|2---4----------------------------|0-------4---5h7-0-------4---5h7--|

[Verse 2]
G|---------------------------------|---------------------------------|
D|---------------------------------|---------------------------------|
A|---------------------------------|---------------------------------|
E|0-------4---5h7-0-------4---5h7--|0-------4---5h7-0-------4---5h7--|

G|---------------------------------|---------------------------------|
D|---------------------------------|---------------------------------|
A|--------4---5h7---------4---5h7--|---------------------------------|
E|5---------------5----------------|0-------4---5h7-0-------4---5h7--|

G|---------------------------------|---------------------------------|
D|---------------------------------|---------------------------------|
A|--------0---1---2----------------|---------------------------------|
E|2---4----------------------------|0-------4---5h7-0---2---3---4----|

[Bridge]
G|---------------------------------|---------------------------------|
D|---------------------------------|---------------------------------|
A|----4---7---4---7---4------------|----4---7---4---7---4------------|
E|5-----------------------7---6----|5-----------------------7---6----|

G|---------------------------------|---------------------------------|
D|---------------------------------|--------------------1---4---1----|
A|----4---7---4---7---4---2---1----|----1---4---1---2----------------|
E|5--------------------------------|2--------------------------------|

G|---------------------------------|-----------------|
D|---------------------------------|-----------------| * 4 bar instead of 8
A|2---0----------------------------|-----------------|
E|--------4---2---0-------4---5h7--|0-------4---5h7--|

G|---------------------------------|---------------------------------|
D|---------------------------------|---------------------------------|
A|---------------------------------|--------4---5h7---------4---5h7--|
E|0-------4---5h7-0-------4---5h7--|5---------------5----------------|

G|---------------------------------|---------------------------------|
D|---------------------------------|---------------------------------|
A|---------------------------------|--------0---1---2----------------|
E|0-------4---5h7-0-------4---5h7--|2---4----------------------------|

G|---------------------------------|
D|---------------------------------|
A|---------------------------------|
E|0-------4---5h7-0-------4---5h7--|

[Solo]
G|---------------------------------|---------------------------------|
D|---------------------------------|---------------------------------|
A|------------4---7---4------------|------------4---7---4------------|
E|0---4---7---------------7---4----|0---4---7---------------7---6----|

G|---------------------------------|---------------------------------|
D|------------4---5---7---5---4----|---------------------------------|
A|--2/4---7------------------------|7---5---4---------------2---4----|
E|5--------------------------------|------------7---0-/-4------------|

G|---------------------------------|---------------------------------|
D|4---7-------8---9---7---6---4----|---------------------------------|
A|---------------------------------|------------4---7---4------------|
E|--------5------------------------|0---4---7---------------7---4----|

[Bridge]
G|---------------------------------|---------------------------------|
D|---------------------------------|---------------------------------|
A|7---4----------------------------|----4---7---4---7---4------------|
E|--------7---4---0---4---7---4----|5-----------------------7---4----|

G|---------------------------------|---------------------------------|
D|---------------------------------|--------------------1---4---1----|
A|----4---7---4---7---4---2---1----|----1---4---1---2----------------|
E|5--------------------------------|2--------------------------------|

G|---------------------------------|-----------------|
D|---------------------------------|-----------------| * 4 bar instead of 8
A|2---0----------------------------|-----------------|
E|--------4---2---0-------4---5h7--|0-------4---5h7--|

G|---------------------------------|---------------------------------|
D|---------------------------------|---------------------------------|
A|---------------------------------|--------4---5h7---------4---5h7--|
E|0-------4---5h7-0-------4---5h7--|5---------------5----------------|

G|---------------------------------|---------------------------------|
D|---------------------------------|---------------------------------|
A|---------------------------------|--------0---1---2----------------|
E|0-------4---5h7-0-------4---5h7--|2---4----------------------------|

G|---------------------------------|---------------------------------|
D|---------------------------------|---------------------------------|
A|---------------------------------|--------0---1---2----------------|
E|0-------4---5h7-0-------4---5h7--|2---4----------------------------|

G|---------------------------------|---------------------------------|
D|---------------------------------|---------------------------------|
A|---------------------------------|--------0---1---2----------------|
E|0-------4---5h7-0-------4---5h7--|2---4----------------------------|

[Outro]
G|---------------------------------|---------------------------------|
D|---------------------------------|---------------------------------|
A|7---4-----------------------4----|---------------------------------|
E|--------7---4---0---4---7--------|0-------4---5h7-0----------------|



************************************

| h  Hammer-on
| /  Slide up

************************************
Suggest correction
Give kudos to tab author, rate the tab!
1 2 3 4 5
comments
print report bad tab
guest
You may want to rate the tab now too:
select rating
Wanna post a correction for this tab? Suggest correction