Oops, an error
Loading. Please wait.

Footprints bass

28 views 1 this week
no commentswrite comment
1 2 3 4 5
3 more votes to show rating
add to favorites
×
Save as Personal and add changes to this tab that will be seen only by you. Learn more ›
×
You can save this tab as Personal to edit and correct it or add notes. All changes will be seen only by you. Learn more »
launch autoscroll
font size
0
reset
guitar tuner
edit
Autoscroll
slow
fast
+/-
esc
set tempo
stop
Author
Difficulty
Intro :
G|---------------------------------|---------------------------------|
D|---------------------------------|---------------------------------|
A|---------------------------------|---------------------------------|
E|---------------------------------|---------------------------------|

G|---------------------------------|---------------------------------|
D|---------------------------------|---------------------------------|
A|---------------------------------|---------------------------------|
E|---------------------------------|---------------------------------|

G|---------------------------------|---------------------------------|
D|---------------------------------|---------------------------------|
A|---------------------------------|---------------------------------|
E|---------------------------------|---------------------------------|

G|---------------------------------|---------------------------------|
D|---------------------------------|---------------------------------|
A|---------------------------------|---------------------------------|
E|---------------------------------|---------------------------------|

Verse 1 :
G|---------------------------------|---------------------------------|
D|---------------------------------|---------------------------------|
A|---------------------------------|---------------------------------|
E|5-------3---0---------------0----|5---5---5------------------------|

G|---------------------------------|---------------------------------|
D|---------------------------------|---------------------------------|
A|---------------------------------|---------------------------------|
E|5-------3---0---------------1----|5---5---5------------------------|

G|---------------------------------|---------------------------------|
D|---------------------------------|---------------------------------|
A|7-------7---------------7--------|---------------------------------|
E|----------------------------7----|0---0----------------------------|

Chorus :
G|---------------------------------|---------------------------------|
D|---------------------------------|---------------------------------|
A|----------------5----------------|------------------------\--------|
E|5-------3------------------------|---------------------------------|

Verse 2 :
G|---------------------------------|---------------------------------|
D|---------------------------------|---------------------------------|
A|---------------------------------|---------------------------------|
E|5-------5-------------------0----|5---5---5------------------------|

G|---------------------------------|---------------------------------|
D|---------------------------------|---------------------------------|
A|---------------------------------|---------------------------------|
E|5-------3---0---------------1----|5---5---5------------------------|

G|---------------------------------|---------------------------------|
D|---------------------------------|---------------------------------|
A|7-------7------------------------|7--------------------------------|
E|----------------------------7----|----7---0---------------3---/----|

Chorus :
G|---------------------------------|---------------------------------|
D|---------------------------------|---------------------------------|
A|----------------5-------5---5----|5--------------------------------|
E|5-------3------------------------|---------------------------------|

G|---------------------------------|---------------------------------|
D|---------------------------------|---------------------------------|
A|----------------3----------------|----------------3---3---3--------|
E|5-------0------------------------|------------3--------------------|

G|---------------------------------|---------------------------------|
D|---------------------------------|---------------------------------|
A|5---------------5----------------|----------------5----------------|
E|--------5------------------------|------------5--------------------|

G|---------------|
D|---------------| *4 instead of 8
A|---------------|
E|---------------|

Verse 3 :
G|---------------------------------|---------------------------------|
D|---------------------------------|---------------------------------|
A|---------------------------------|---------------------------------|
E|5---------------------------0----|5---5---5------------------------|

G|---------------------------------|---------------------------------|
D|---------------------------------|---------------------------------|
A|---------------------------------|---------------------------------|
E|5-------3-\-0---------------0----|5---5---5------------------------|

G|---------------------------------|---------------------------------|
D|---------------------------------|---------------------------------|
A|7-------7------------------------|7--------------------------------|
E|----------------------------7----|----7---0---------------3---/----|

Chorus :
G|---------------------------------|---------------------------------|
D|---------------------------------|---------------------------------|
A|----------------5-------5---5----|5--------------------------------|
E|5-------3------------------------|------------0---5-------0--------|

G|---------------------------------|---------------------------------|
D|---------------------------------|---------------------------------|
A|3--------------------------------|3---3---3-------5----------------|
E|----------------------------3----|------------------------5--------|

G|---------------------------------|
D|---------------------------------|
A|5-----------5---5----------------|
E|---------------------------------|

Bridge :
G|---------------------------------|---------------------------------|
D|---------------------------------|---------------------------------|
A|3-------------------5------------|7---------------------------2----|
E|------------------------5---7----|--------------------0---3--------|

G|---------------------------------|---------------------------------|
D|---------------------------------|---------------------------------|
A|0-------------------0---2--------|---------------------------------|
E|----------------------------3----|0--------------------------------|

G|---------------------------------|---------------------------------|
D|---------------------------------|---------------------------------|
A|3-------3-----------5------------|7---------------------------2----|
E|----3-------------------5---7----|--------7---\-------0---3--------|

G|---------------------------------|---------------------------------|
D|---------------------------------|---------------------------------|
A|0-------------------0---2--------|----------------2----------------|
E|----------------------------3----|0-------3---------------3--------|

G|---------------------------------|---------------------------------|
D|---------------------------------|---------------------------------|
A|0-------------------0---2--------|----------------2---2------------|
E|----------------------------3----|0-------3---------------0---2----|

G|---------------------------------|---------------------------------|
D|----------------2----------------|---------------------------------|
A|2-----------2--------------------|0-----------/---5-----------\----|
E|----------------------------3----|---------------------------------|

G|---------------------------------|---------------------------------|
D|----------------2----------------|---------------------------------|
A|2-----------2--------------------|0---------------5----------------|
E|------------------------3---0----|---------------------------------|

Solo :
G|---------------------------------|---------------------------------|
D|---------------------------------|---------------------------------|
A|---------------------------------|---------------------------------|
E|------------5---5---5-------/----|5---5---5-------5----------------|

G|-----------/7--------------------|---------------------------------|
D|---------------------------------|---------------------------------|
A|---------------------------------|---------------------------------|
E|---------------------------------|5---5---5-------5----------------|

G|---------------------------------|---------------------------------|
D|---------------------------------|---------------------------------|
A|5-----------5--------------------|5---5---5-------5----------------|
E|---------------------------------|---------------------------------|

G|---------------------------------|---------------------------------|
D|---------------------------------|---------------------------------|
A|----------------5----------------|---------------------------------|
E|5-------3------------------------|---------------------------------|

G|-----------|
D|-----------| *3 instead of 8
A|-----------|
E|-----------|

Verse 4 :
G|---------------------------------|---------------------------------|
D|---------------------------------|---------------------------------|
A|---------------------------------|---------------------------------|
E|5-------3-------------------0----|5---5---5------------------------|

G|---------------------------------|---------------------------------|
D|---------------------------------|---------------------------------|
A|---------------------------------|---------------------------------|
E|5-------3-------------------0----|5---5---5---5--------------------|

G|---------------------------------|---------------------------------|
D|---------------------------------|---------------------------------|
A|7-------7------------------------|7--------------------------------|
E|----------------------------7----|----7---0-------0-------3---/----|

Chorus :
G|---------------------------------|---------------------------------|
D|---------------------------------|---------------------------------|
A|----------------5-------5---5----|5--------------------------------|
E|5-------3------------------------|----------------5-------0--------|

G|---------------------------------|---------------------------------|
D|---------------------------------|---------------------------------|
A|3---------------3---3------------|3-------3-------5----------------|
E|------------3---------------3----|------------------------5--------|

G|---------------------------------|
D|---------------------------------|
A|5---------------5---5---5--------|
E|------------5--------------------|

Bridge :
G|---------------------------------|---------------------------------|
D|---------------------------------|---------------------------------|
A|3-------------------5------------|7---------------------------2----|
E|------------------------5---7----|--------------------0---3--------|

G|---------------------------------|---------------------------------|
D|---------------------------------|---------------------------------|
A|0-------------------0---2--------|---------------------------------|
E|----------------------------3----|0--------------------------------|

G|---------------------------------|---------------------------------|
D|---------------------------------|---------------------------------|
A|3-------3-------5-------5--------|7-------7-------------------2----|
E|----3---------------5------------|----7---------------0---3--------|

G|---------------------------------|---------------------------------|
D|---------------------------------|------------------------2--------|
A|0-------------------0---2--------|----------------2----------------|
E|----------------------------3----|0-------3------------------------|

G|---------------------------------|---------------------------------|
D|---------------------------------|---------------------------------|
A|3-------3-------5-------5--------|7--------------------------------|
E|----3---------------5------------|--------7---\---3-------0--------|

G|---------------------------------|---------------------------------|
D|---------------------------------|---------------------------------|
A|0-------------------0---2--------|----------------2---2------------|
E|----------------------------3----|0-------3------------------------|

G|---------------------------------|---------------------------------|
D|---------------------------------|---------------------------------|
A|3-------3-------5-------5--------|7---7----------------------------|
E|----3---------------5------------|--------7-------3-------0--------|

G|---------------------------------|---------------------------------|
D|---------------------------------|---------------------------------|
A|0-------------------0------------|----------------2-------0---1----|
E|----------------------------3----|0-------3-----------2------------|

G|---------------------------------|---------------------------------|
D|--------1-------2----------------|---------------------------------|
A|2-----------------------2--------|----------------5-------3--------|
E|---------------------------------|5--------------------------------|

G|---------------------------------|---------------------------------|
D|--------1-------2----------------|---------------------------------|
A|2-----------2-----------2--------|----------------5-------7---7----|
E|----------------------------0----|5--------------------------------|

Outro :
G|---------------------------------|---------------------------------|
D|---------------------------------|---------------------------------|
A|---------------------------------|---------------------------------|
E|5---------------------------0----|5---5---5---5--------------------|

G|---------------------------------|---------------------------------|
D|---------------------------------|---------------------------------|
A|---------------------------------|---------------------------------|
E|5-------3-------------------1----|5---5---5---5--------------------|

G|---------------------------------|---------------------------------|
D|---------------------------------|---------------------------------|
A|7-------7------------------------|7--------------------------------|
E|----------------------------7----|----7---0---0---0---0------------|

G|---------------------------------|---------------------------------|
D|---------------------------------|---------------------------------|
A|----------------5----------------|---------------------------------|
E|5-------3------------------------|---------------------------------|

************************************
|
| /   Slide up
| \   Slide down

************************************
Suggest correction
Creating personal tab
Creating personal tab
You can edit any tab online and save it as your Personal.

You can edit, replace or remove any tab part or add personal notes – all changes will be seen only by you.

Personal tabs can be accessed anytime from any device, even offline.
Learn more »
Give kudos to tab author, rate the tab!
1 2 3 4 5
comments
print report bad tab
guest
You may want to rate the tab now too:
select rating
Wanna post a correction for this tab? Suggest correction