Oops, an error
Loading. Please wait.

From A Lover To A Friend Bass Tab

28 views 1 this week
no commentswrite comment
1 2 3 4 5
3 more votes to show rating
add to favorites
launch autoscroll
font size
0
reset
guitar tuner
Autoscroll
slow
fast
+/-
esc
set tempo
stop
Help us to improve Ultimate-Guitar.com Take our survey!
×
Verse 1 :
G|---------------------------------|---------------------------------|
D|---------------------------------|---------------------------------|
A|15--------------15---------------|15---------------15---------15h17|
E|---------------------------------|---------------------------------|

G|---------------------------------|---------------------------------|
D|---------------------------------|---------------------------------|
A|15--------------15-----------15--|15-------------------------------|
E|---------------------------------|---------------------------------|

G|---------------------------------|---------------------------------|
D|---------------------------------|---------------------------------|
A|-------------12/15----------15h17|15-------------------------------|
E|8--------------------------------|----------------8------------8---|

G|---------------------------------|---------------------------------|
D|10--------------10---------------|---------------------------------|
A|---------------------------------|-------12-------12-------12---10-|
E|---------------------------------|---------------------------------|

Chorus :
G|---------------------------------|---------------------------------|
D|---------------------------------|---------------------------------|
A|8--------------------------------|3---------------3----------------|
E|---------------------------------|---------------------------------|

G|---------------------------------|----------------7-------5--------|
D|---------------------------------|------------5h7------------------|
A|---------------------------------|5--------------------------------|
E|3-----------3---3----------------|---------------------------------|

G|---------------------------------|---------------------------------|
D|---------------------------------|---------------------------------|
A|---------------------------------|3-----------3---3----------------|
E|1-----------1---1----------------|---------------------------------|

G|---------------------------------|---------------------------------|
D|---------------------------------|---------------------------------|
A|---------------------------------|5-----------5---5-------5--------|
E|3-----------3---3----------------|---------------------------------|

G|---------------------------------|---------------------------------|
D|12----------12--------------h14--|---------------------------------|
A|---------------------------------|---------------------------------|
E|---------------------------------|---------------------------------|

"Oooooh lalalala"
G|----------5h7---9------------7---|--------------5h7---9--------7---|
D|0---5h7--------------------------|0-------5h7----------------------|
A|---------------------------------|---------------------------------|
E|---------------------------------|---------------------------------|

G|----------------5-7-9--------7---|------------7-5------------------|
D|0-----------5-7------------------|0-------5h7---------5--------3---|
A|---------------------------------|---------------------------------|
E|---------------------------------|---------------------------------|

G|------------5h7/12--9--------7---|----------------5h7---9------7---|
D|0-------5h7----------------------|0-------5--h7--------------------|
A|---------------------------------|---------------------------------|
E|---------------------------------|---------------------------------|

G|----------------5h7---9------7---|---------------------------------|
D|0-------5--h7--------------------|0--------------------------------|
A|---------------------------------|---------------------------------|
E|---------------------------------|---------------------------------|

Chorus :
G|---------------------------------|---------------------------------|
D|---------------------------------|---------------------------------|
A|---------------------------------|3---------------3----------------|
E|1-----------1---1------------1---|---------------------------------|

G|---------------------------------|---------------------------------|
D|---------------------------------|---------------------------------|
A|---------------------------------|5-----------5---5----------------|
E|3----------3---3-----------------|---------------------------------|

G|---------------------------------|---------------------------------|
D|---------------------------------|---------------------------------|
A|---------------------------------|3-----------3---3----------------|
E|1---------1---1------------------|---------------------------------|

G|---------------------------------|----------------7---5------------|
D|---------------------------------|------------5h7------------------|
A|---------------------------------|5--------------------------------|
E|3---------3---3------------------|---------------------------------|

Verse 2 :
G|---------------------------------|---------------------------------|
D|---------------------------------|----------------10-------10------|
A|--------------13h15---15---------|---------------------------------|
E|8--------------------------------|8-----------8--------------------|

G|---------------------------------|---------------------------------|
D|--------------10-------10--------|---------------------------------|
A|---------------------------------|8---------------12-------5---3---|
E|8---------8----------------------|---------------------------------|

G|---------------------------------|---------------------------------|
D|---------------------------------|---------------------------------|
A|---------------------------------|3-----------3---3--------3---0---|
E|1---------1---1--------------1---|---------------------------------|

G|---------------------------------|------------7-------5------------|
D|---------------------------------|--------5h7-------------5--------|
A|---------------------------------|5--------------------------------|
E|3---------3---3--------------3---|---------------------------------|

G|7---0---5------------------------|5---5-------5---5----------------|
D|---------------------------------|---------------------------------|
A|-----------------3---3---3---3---|---------------------------------|
E|---------------------------------|---------------------------------|

G|---------------------------------|---------------------7---5-------|
D|---------------------------------|------------------5h7--------5---|
A|---------------------------------|5-----------5---5----------------|
E|3-------3---3--------------------|---------------------------------|

"Oooooh lalalala" (Outro)
G|------5h7---9------------5---7---|------------5h7-5h7-4h5-4h5------|
D|0--5h7---------------------------|0---5-h-7-------------------5h7--|
A|---------------------------------|---------------------------------|
E|---------------------------------|---------------------------------|

G|--------5-7-9------------5---7---|------------5----------0-0-------|
D|0---5-7--------------------------|----5-h-7--------------------5---|
A|---------------------------------|---------------------------------|
E|---------------------------------|---------------------------------|

G|--------5h7-9------------5h7-5---|------------5h7-9----------------|
D|---------------------------------|----0---5h7---------10--12--12---|
A|5--------------------------------|---------------------------------|
E|---------------------------------|---------------------------------|

G|-------------------------3-/-5-/-|7--------------------------------|
D|----12--------12-----------------|---------------------------------|
A|---------10h12--10---------------|----5---5-------5---5------------|
E|---------------------------------|---------------------------------|

G|7-h-10--17--16-----------12--\---|-------17---16------12h-14-------|
D|---------------------------------|12--15---------------------------|
A|---------------------------------|---------------------------------|
E|---------------------------------|---------------------------------|

G|--------17--16------12--12h-14---|14------12-----------------------|
D|12--15---------------------------|----------------15------15-------|
A|---------------------------------|---------------------------------|
E|---------------------------------|---------------------------------|

G|7-h-10--17--16-------------------|----17--17--18-------------------|
D|--------------------15--17-------|--------------------15--15-------|
A|---------------------------------|---------------------------------|
E|---------------------------------|---------------------------------|

G|------17---16-------12-12h14-12--|---------------------------------|
D|12--15---------------------------|12------12-----------------------|
A|---------------------------------|---------------------------------|
E|---------------------------------|---------------------------------|
Suggest correction
Give kudos to tab author, rate the tab!
1 2 3 4 5
comments
print report bad tab
guest
You may want to rate the tab now too:
select rating
Wanna post a correction for this tab? Suggest correction