Oops, an error
Loading. Please wait.

Get Out Of My Way Bass Tab

16 views 1 this week
no commentswrite comment
1 2 3 4 5
3 more votes to show rating
add to favorites
launch autoscroll
font size
0
reset
guitar tuner
Autoscroll
slow
fast
+/-
esc
set tempo
stop
Help us to improve Ultimate-Guitar.com Take our survey!
×
Author
Difficulty
Intro :
G|---------------------------------|---------------------------------|
D|---------------------------------|---------------------------------|
A|5-----------5---5----------------|5-----------5---5-------/--------|
E|---------------------------------|---------------------------------|

G|---------------------------------|---------------------------------|
D|---------------------------------|---------------------------------|
A|0-----------0---0----------------|0---0---4-------5-------6--------|
E|---------------------------------|---------------------------------|

G|---------------------------------|---------------------------------|
D|---------------------------------|---------------------------------|
A|7-----------7---7-----------7----|7---7-----------7---7------------|
E|---------------------------------|---------------------------------|

Verse 1 :
G|---------------------------------|---------------------------------|
D|---------------------------------|---------------------------------|
A|---------------------------------|---------------------------------|
E|5---------------5----------------|5---------------5-----------5----|

G|---------------------------------|---------------------------------|
D|---------------------------------|---------------------------------|
A|5---------------5-----------5----|5-----------5---5-----------5----|
E|---------------------------------|---------------------------------|

G|---------------------------------|---------------------------------|
D|---------------------------------|---------------------------------|
A|7-----------7---7----------------|7-----------7---7----------------|
E|---------------------------------|---------------------------------|

G|---------------------------------|---------------------------------|
D|---------------------------------|---------------------------------|
A|---------------------------------|--------4-------5-------6---7----|
E|5-----------5---5-------3---4----|5---5----------------------------|

G|---------------------------------|---------------------------------|
D|---------------------------------|---------------------------------|
A|0---------------0----------------|0---------------0-----------0----|
E|---------------------------------|---------------------------------|

G|---------------------------------|---------------------------------|
D|---------------------------------|---------------------------------|
A|5---------------5-----------5----|5-----------5---5-----------5----|
E|---------------------------------|---------------------------------|

G|---------------------------------|---------------------------------|
D|---------------------------------|---------------------------------|
A|7-----------7---7----------------|7-----------7---7-----------7----|
E|---------------------------------|---------------------------------|

G|---------------------------------|---------------------------------|
D|7-----------7---7-----------7----|7-----------7---7----------------|
A|---------------------------------|---------------------------------|
E|---------------------------------|---------------------------------|

Chorus :
G|---------------------------------|---------------------------------|
D|4-----------4--------------------|---------------------------------|
A|----------------5----------------|5---------------5---5------------|
E|---------------------------------|---------------------------------|

G|---------------------------------|---------------------------------|
D|---------------------------------|---------------------------------|
A|----------------7----------------|7-----------------------7--------|
E|5-----------5--------------------|---------------------------------|

G|---------------------------------|---------------------------------|
D|4-----------4---4-----------4----|---------------------------------|
A|---------------------------------|5-----------5---5----------------|
E|---------------------------------|---------------------------------|

G|---------------------------------|---------------------------------|
D|---------------------------------|----------------2-------3--------|
A|0-----------0---0----------------|0-------4------------------------|
E|---------------------------------|---------------------------------|

G|---------------------------------|---------------------------------|
D|4-----------4--------------------|---------------------------------|
A|----------------5----------------|5-----------5---5-------/--------|
E|---------------------------------|---------------------------------|

G|---------------------------------|---------------------------------|
D|---------------------------------|---------------------------------|
A|----------------7----------------|7-----------7---7-------0--------|
E|5-----------5--------------------|---------------------------------|

G|---------------------------------|---------------------------------|
D|4-----------4---4-----------4----|---------------------------------|
A|---------------------------------|5-----------5---5----------------|
E|---------------------------------|---------------------------------|

G|---------------------------------|---------------------------------|
D|---------------------------------|---------------------------------|
A|0-----------0---0----------------|--------4---4---7---7---4---4----|
E|---------------------------------|5---5----------------------------|

Solo :
G|---------------------------------|---------------------------------|
D|---------------------------------|----------------4---4---5---6----|
A|5-----------5---5----------------|5-----------5--------------------|
E|---------------------------------|---------------------------------|

G|---------------------------------|---------------------------------|
D|7-----------7---------------7----|---------------------------------|
A|----------------0----------------|--------4-------5-------6--------|
E|---------------------------------|5---5----------------------------|

G|---------------------------------|---------------------------------|
D|---------------------------------|--------------------4---7---7----|
A|7-----------7---7-----------7----|7---7-------7---7----------------|
E|---------------------------------|---------------------------------|

G|---------------------------------|---------------------------------|
D|7---7---5---5---4---4------------|---------------------------------|
A|------------------------7---7----|5---5---4---4--------------------|
E|---------------------------------|----------------7---7---5---5----|

G|---------------------------------|---------------------------------|
D|---------------------------------|---------------------------------|
A|5-------3-------2-------0--------|---------------------------------|
E|---------------------------------|1-------2-------3-------4--------|

G|---------------------------------|---------------------------------|
D|------------------------4---6----|7---7---7---7---7----------------|
A|--------4---5---7----------------|--------------------7---7---6----|
E|5--------------------------------|---------------------------------|

G|---------------------------------|---------------------------------|
D|---------------------------------|---------------------------------|
A|6---7---7---7---6---7---7---7----|6---7---7---7---6---7---7---7----|
E|---------------------------------|---------------------------------|

G|---------------------------------|---------------------------------|
D|7---7---7---7---9---9---9---9----|10--10--10--10--11--11--11--11---|
A|---------------------------------|---------------------------------|
E|---------------------------------|---------------------------------|

G|---------------------------------|---------------------------------|
D|12-------------------------------|------------------------5--------|
A|----------------12---\------3----|5---5---5---5---7----------------|
E|---------------------------------|---------------------------------|

G|---------------------------------|---------------------------------|
D|7-----------7---------------7----|7-----------7---7-------5---7----|
A|----------------0---4---7--------|--------------------7------------|
E|---------------------------------|---------------------------------|

G|------------------------5--------|---------------------------------|
D|9-------7---5---------------7----|5--------------------------------|
A|----------------7----------------|----7---6---5---3----------------|
E|---------------------------------|--------------------5---3---4----|

Verse 2 :
G|---------------------------------|---------------------------------|
D|7-----------7---7-----------7----|7-----------7---7-----------7----|
A|---------------------------------|---------------------------------|
E|---------------------------------|---------------------------------|

G|---------------------------------|---------------------------------|
D|---------------------------------|---------------------------------|
A|5-----------5---5----------------|5-----------5---5----------------|
E|---------------------------------|---------------------------------|

G|---------------------------------|---------------------------------|
D|---------------------------------|---------------------------------|
A|7-----------7---7-----------7----|7-----------7---7----------------|
E|---------------------------------|---------------------------------|

G|---------------------------------|---------------------------------|
D|7-----------7---------------7----|7-----------7--------------------|
A|----------------0----------------|----------------0----------------|
E|---------------------------------|---------------------------------|

G|---------------------------------|---------------------------------|
D|---------------------------------|---------------------------------|
A|---------------------------------|---------------------------------|
E|5-----------5---5-----------5----|5-----------5---5-----------5----|

G|---------------------------------|---------------------------------|
D|---------------------------------|---------------------------------|
A|5-----------5---5----------------|5-----------5---5----------------|
E|---------------------------------|---------------------------------|

G|---------------------------------|---------------------------------|
D|---------------------------------|---------------------------------|
A|7-----------7---7-----------7----|7-----------7---7----------------|
E|---------------------------------|---------------------------------|

G|---------------------------------|---------------------------------|
D|7-----------7---7-----------7----|7-----------7---7----------------|
A|---------------------------------|---------------------------------|
E|---------------------------------|---------------------------------|

Chorus :
G|---------------------------------|---------------------------------|
D|4-----------4--------------------|---------------------------------|
A|----------------5----------------|5-----------5---5----------------|
E|---------------------------------|---------------------------------|

G|---------------------------------|---------------------------------|
D|7-----------7--------------------|---------------------------------|
A|----------------7----------------|7-----------7---7-------0--------|
E|---------------------------------|---------------------------------|

G|---------------------------------|---------------------------------|
D|4-----------4---4-----------4----|---------------------------------|
A|---------------------------------|5-----------5---5----------------|
E|---------------------------------|---------------------------------|

G|---------------------------------|---------------------------------|
D|7-----------7---------------7----|7-----------7---7----------------|
A|----------------0----------------|---------------------------------|
E|---------------------------------|---------------------------------|

G|---------------------------------|---------------------------------|
D|4-----------4--------------------|---------------------------------|
A|----------------5----------------|5-----------5---5-------/--------|
E|---------------------------------|---------------------------------|

G|---------------------------------|---------------------------------|
D|---------------------------------|---------------------------------|
A|----------------7----------------|7-----------7---7-------0--------|
E|5-----------5--------------------|---------------------------------|

G|---------------------------------|---------------------------------|
D|4-----------4---4-----------4----|---------------------------------|
A|---------------------------------|5-----------5---5----------------|
E|---------------------------------|---------------------------------|

G|---------------------------------|---------------------------------|
D|7-----------7---7-----------7----|7---7---7---7---7---7---7---7----|
A|---------------------------------|---------------------------------|
E|---------------------------------|---------------------------------|

G|---------------------------------|---------------------------------|
D|4-----------4--------------------|---------------------------------|
A|----------------5----------------|5-----------5---5----------------|
E|---------------------------------|---------------------------------|

G|---------------------------------|---------------------------------|
D|7-----------7--------------------|---------------------------------|
A|----------------7----------------|7-----------7---7-------0--------|
E|---------------------------------|---------------------------------|

G|---------------------------------|---------------------------------|
D|4-----------4---4-----------4----|---------------------------------|
A|---------------------------------|5-----------5---5----------------|
E|---------------------------------|---------------------------------|

G|---------------------------------|---------------------------------|
D|7-----------7---7-----------7----|7---7---7---7---7---7---7---7----|
A|---------------------------------|---------------------------------|
E|---------------------------------|---------------------------------|

Solo :
G|---------------------------------|---------------------------------|
D|---------------------------------|---------------------------------|
A|5-----------5---5-----------5----|5-----------5---5----------------|
E|---------------------------------|---------------------------------|

G|---------------------------------|---------------------------------|
D|7-----------7---7----------------|---------------------------------|
A|---------------------------------|0---0---4---4---5---5---6---6----|
E|---------------------------------|---------------------------------|

G|---------------------------------|---------------------------------|
D|---------------------------------|---------------------------------|
A|7-------7---7---9---9---9---9----|10--10--10--10--11--11--11--11---|
E|---------------------------------|---------------------------------|

G|------------14------14-----------|-------14--12--------------------|
D|----12--14------------------14---|14-------------14--12--10--\-----|
A|12-------------------------------|---------------------------------|
E|---------------------------------|---------------------------------|

G|---------------------------------|---------------------------------|
D|---------------------------------|-------------------4---5---6-----|
A|5-----------5---5-----------5----|5----------5---5-----------------|
E|---------------------------------|---------------------------------|

G|---------------------------------|---------------------------------|
D|7-----------7---7-----------7----|7----------7---7-------5---7-----|
A|---------------------------------|-------------------7-------------|
E|---------------------------------|---------------------------------|

G|------------------------5--------|---------------------------------|
D|9-------7---5---------------7----|5--------------------------------|
A|----------------7----------------|----7---6---5---3----------------|
E|---------------------------------|--------------------5---3---5----|

G|---------------------------------|---------------------------------|
D|---------------------------------|---------------------------------|
A|---------------------------------|---------------------------------|
E|---------------------------------|---------------------------------|

Outro :
G|---------------------------------|---------------------------------|
D|---------------------------------|---------------------------------|
A|5-----------5---5-----------5----|5--------------------------------|
E|---------------------------------|--------2---2---3---3---4---4----|

G|---------------------------------|---------------------------------|
D|---------------------------------|--------5---5---6---6---7---7----|
A|--------4---4---5---5---6---6----|7---7----------------------------|
E|5---5----------------------------|---------------------------------|

G|---------------------------------|---------------------------------|
D|---------------------------------|----------------------------7----|
A|7-----------7---7-----------7----|7-----------7---7---7---7--------|
E|---------------------------------|---------------------------------|

G|---------------------------------|---------------------------------|
D|7---7---7---7---9---9---9---9----|10--10--10--10--11--11--11--11---|
A|---------------------------------|---------------------------------|
E|---------------------------------|---------------------------------|

G|---------------------------------|---------------------------------|
D|12--12--10--9--------------------|----------------4---4---5---6----|
A|----------------12--\-------5----|----5---5---5--------------------|
E|---------------------------------|---------------------------------|

G|---------------------------------|---------------------------------|
D|7-----------7---7----------------|7-----------7---7-------5---7----|
A|---------------------------------|--------------------7------------|
E|---------------------------------|---------------------------------|

G|------------------------5--------|---------------------------------|
D|9-------7---5---------------7----|5--------------------------------|
A|----------------7----------------|----7---6---5---3----------------|
E|---------------------------------|--------------------5---3---5----|
Suggest correction
Give kudos to tab author, rate the tab!
1 2 3 4 5
comments
print report bad tab
guest
You may want to rate the tab now too:
select rating
Wanna post a correction for this tab? Suggest correction