Oops, an error
Loading. Please wait.

Getting Closer bass

292 views 3 this week
no commentswrite comment
1 2 3 4 5
2 more votes to show rating
add to favorites
×
Save as Personal and add changes to this tab that will be seen only by you. Learn more ›
×
You can save this tab as Personal to edit and correct it or add notes. All changes will be seen only by you. Learn more »
launch autoscroll
font size
0
reset
guitar tuner
edit
Autoscroll
slow
fast
+/-
esc
set tempo
stop
 
    Getting Closer: (The first single from Back Of The Egg that
     reached #20 in the Billboard charts in 1979). The song dates 
     to as far back as 1973-74!


    0:00 Say you don't love him 

  G|-------------------------------|-------------------------------|
  D|-------------------------------|-------------------------------|
  A|----------------7-----5--------|--------------------4-4-5-5-7-7|
  E|5------------------------------|0-0-2-2-4-4-5-5-7-7------------|


  G|-------------------------------|-------------------------------|
  D|-------------------------------|-------------------------------|
  A|------------4-5-7-7-7-5---5\12/|--------------------4-4-5-5-7--|
  E|5---------5--------------------|0-0-2-2-4-4-5-5-7-7------------|

                            0:18 I'm getting closer
  
  G|-------------------------------|----4-4-----4-4-----4-4-----4-4|
  D|----7-7-----7-7-----7-7-----7-7|-------------------------------|
  A|-------------------------------|2-2-----2-2-----2-2-----2-2----|
  E|5-5-----5-5-----5-5-----5-5----|-------------------------------|



  G|----7-7-----7-7-----7-7---5p4--|-------------------------------|
  D|------------------------------7|----7-7-----7-7---7---6---4----|
  A|5-5-----5-5-----5-5------------|------------------------------7|
  E|-------------------------------|5-5-----5-5-----5--------------|

    0:30 Keeping ahead of the rain on the road

  G|-------------------------------|-------------------------------|
  D|-------------------------------|----4-4------------------------|
  A|--------4-4-5-5-7-7-5-5-4-4----|--------7-7-4-5-7-7-5-5-4-4----|
  E|5-5-7-7---------------------7-7|5-5-------------------------7-7|


  G|-------------------------------|-------------------------------|
  D|-------------------------------|----4-4------------------------|
  A|--------4---5-5-7---5---4------|--------7-7-4-5-7-7-5-5-4-4---4|
  E|5-5-7-----------------------7--|5-5-------------------------7--|

                                   
  G|-------------------------------|
  D|-------------------------------|
  A|5-----5-5-5---5-5-5-5-5-5---7--|
  E|-------------------------------|

    0:48 When will you see me?

  G|-------------------------------|-------------------------------|
  D|-------------------------------|-------------------------------|
  A|------------4-5-7-7-7-5---5\12/|--------------------4-4-5-5-7--|
  E|5---------5--------------------|0-0-2-2-4-4-5-5-7-7------------|


  G|-------------------------------|-------------------------------|
  D|-------------------------------|-------------------------------|
  A|------------4-5-7-7-7-5---5\12/|--------------------4-4-5-5-7--|
  E|5---------5--------------------|0-0-2-2-4-4-5-5-7-7------------|

                           1:05 I'm getting closer
  
  G|-------------------------------|----4-4-----4-4-----4-4-----4-4|
  D|----7-7-----7-7-----7-7-----7-7|-------------------------------|
  A|-------------------------------|2-2-----2-2-----2-2-----2-2----|
  E|5-5-----5-5-----5-5-----5-5----|-------------------------------|



  G|----7-7-----7-7-----7-7---5p4--|-------------------------------|
  D|------------------------------7|----7-7-----7-7-5-5-4-4--------|
  A|5-5-----5-5-----5-5------------|------------------------7-5-4--|
  E|-------------------------------|5-5-----5-5-------------------7|

    1:17 Hitting the chisel and making a joint

  G|-------------------------------|-------------------------------|
  D|-------------------------------|----7-7------------------------|
  A|--------4-4-5-5-7-7-5-5-4-4----|--------7-7-4-5-7-7-5-5-4-4----|
  E|5-5-7-7---------------------7-7|5-5-------------------------7-7|


  G|-------------------------------|-------------------------------|
  D|-------------------------------|----7-7------------------------|
  A|--------4-4-5-5-7-7-5-5-4-4----|--------7-7-4-5-7-7-5-5-4-4----|
  E|5-5-7-----------------------7--|5-5-------------------------7-7|

                                   
  G|-------------------------------|
  D|-------------------------------|
  A|5---------------5-5-5-5-5-----7|
  E|-------------------------------|

    1:35 I'm Getting Closer

  G|-------------------------------|-------------------------------|
  D|-------------------------------|-------------------------------|
  A|------------4-5-7-7-7-5---5\12/|--------------------4-4-5-5-7--|
  E|5---------5--------------------|0-0-2-2-4-4-5-5-7-7------------|


  G|-------------------------------|-------------------------------|
  D|-------------------------------|-------------------------------|
  A|------------4-5-7-7-7-5---5\12/|--------------------4-4-5-5-7--|
  E|5---------5--------------------|0-0-2-2-4-4-5-5-7-7------------|

                           1:52 I'm getting closer
  
  G|-------------------------------|----4-4-----4-4-----4-4-----4-4|
  D|----7-7-----7-7-----7-7-----7-7|-------------------------------|
  A|-------------------------------|2-2-----2-2-----2-2-----2-2----|
  E|5-5-----5-5-----5-5-----5-5----|-------------------------------|


  G|----7-7-----7-7-----7-7-----7-7|-------------------------------|
  D|-------------------------------|----7-7---5---4---2---4---5-7--|
  A|5-5-----5-5-----5-5-----5-5----|-------------------------------|
  E|-------------------------------|5-5----------------------------|


  G|----7-7-----7-7-----7-7-----7-7|-------------------------------|
  D|-------------------------------|----7-7-----7-7-----7-7-----7-7|
  A|5-5-----5-5-----5-5-----5-5----|-------------------------------|
  E|-------------------------------|5-5-----5-5-----5-5-----5-5----|


  G|----7-7-----7-7-----7-7-----7-7|-------------------------------|
  D|-------------------------------|----7-7---5---4----------------|
  A|5-5-----5-5-----5-5-----5-5----|------------------7---5---4----|
  E|-------------------------------|5-5-------------------------7--|

    2:19 Closer, Closer!

  G|-------------------------------|-------------------------------|
  D|-------------------------------|-------------------------------|
  A|5-----4-5-5---4-5-5---4-5-5---4|------------------------------4|
  E|----5-------5-------5-------5--|5---0-4-5-5-0-4-5-5-0-4-5-5-5--|


  G|-------------------------------|-------------------------------|
  D|-------------------------------|-------------------------------|
  A|5-----4-5-5---4-5-5---4-5-5---4|------------------------------4|
  E|----5-------5-------5-------5--|5---0-4-5-5-0-4-5-5-0-4-5-5-5--|


  G|-------------------------------|-------------------------------|
  D|-------------------------------|-------------------------------|
  A|5-----4-5-5---4-5-5---4-5-5---4|------------------------------4|
  E|----5-------5-------5-------5--|5---0-4-5-5-0-4-5-5-0-4-5-5-5--|


  G|-------------------------------|-------------------------------|
  D|------------------7---6---5---4|-------------------------------|
  A|5-----4-5-5---4-5---5---5---5--|------------------------------4|
  E|----5-------5------------------|5---0-4-5-5-0-4-5-5-0-4-5-5-5--|


  G|-------------------------------|-------------------------------|
  D|-------------------------------|-------------------------------|
  A|5-----4-5-5---4-5-5---4-5-5---4|------------------------------4|
  E|----5-------5-------5-------5--|5---0-4-5-5-0-4-5-5-0-4-5-5-5--|


  G|-------------------------------|-------------------------------|
  D|-------------------------------|-------------------------------|
  A|5-----4-5-5---4-5-5---4-5-5---4|------------------------------4|
  E|----5-------5-------5-------5--|5---0-4-5-5-0-4-5-5-0-4-5-5-5--|


  G|-------------------------------|-------------------------------|
  D|-------------------------------|-------------------------------|
  A|5-----4-5-5---4-5-5---4-5-5---4|------------------------------4|
  E|----5-------5-------5-------5--|5---0-4-5-5-0-4-5-5-0-4-5-5-5--|

    --FADE--

  G|-------------------------------|-------------------------------|
  D|-------------------------------|-------------------------------|
  A|5-----4-5-5---4-5-5---4-5-5---4|------------------------------4|
  E|----5-------5-------5-------5--|5---0-4-5-5-0-4-5-5-0-4-5-5-5--|


  G|-------------------------------|-------------------------------|
  D|-------------------------------|-------------------------------|
  A|5-----4-5-5---4-5-5---4-5-5---4|-------------------------------|
  E|----5-------5-------5-------5--|-------------------------------|

            
            
Suggest correction
Creating personal tab
Creating personal tab
You can edit any tab online and save it as your Personal.

You can edit, replace or remove any tab part or add personal notes – all changes will be seen only by you.

Personal tabs can be accessed anytime from any device, even offline.
Learn more »
Give kudos to tab author, rate the tab!
1 2 3 4 5
comments
print report bad tab
guest
You may want to rate the tab now too:
select rating
Wanna post a correction for this tab? Suggest correction