Oops, an error
Loading. Please wait.

Give Ireland Back To The Irish bass

31 views 1 this week
no commentswrite comment
1 2 3 4 5
3 more votes to show rating
add to favorites
×
Save as Personal and add changes to this tab that will be seen only by you. Learn more ›
×
You can save this tab as Personal to edit and correct it or add notes. All changes will be seen only by you. Learn more »
launch autoscroll
font size
0
reset
guitar tuner
edit
Autoscroll
slow
fast
+/-
esc
set tempo
stop
[Intro]
G|---------------------------------|---------------------------------|
D|---------------------------------|---------------------------------|
A|5-----------5-----------2---2-/--|5-----------5--------------------|
E|---------------------------------|---------------------------------|

[Chorus]
G|---------------------------------|---------------------------------|
D|--------------------2---4--------|5--------------------------------|
A|5-----------5--------------------|--------------------0---2--------|
E|---------------------------------|------------3--------------------|

G|---------------------------------|---------------------------------|
D|---------------------------------|---------------------------------|
A|5-----------5-------4---2--------|--------------------2---4--------|
E|---------------------------------|5-----------5--------------------|

G|---------------------------------|---------------------------------|
D|--------------------2---4---0----|---------------------------------|
A|5-----------5--------------------|--------------------0---2---4----|
E|---------------------------------|3-----------3--------------------|

G|---------------------------------|---------------------------------|
D|---------------------------------|---------------------------------|
A|5-------------------2---4---0----|5-------5------------------------|
E|------------5--------------------|------------------------7--------|

[Verse]
G|---------------------------------|---------------------------------|
D|---------------------------------|----------------------------4----|
A|5-----------5--------------------|7-----------7--------------------|
E|---------------------------------|---------------------------------|

G|---------------------------------|---------------------------------|
D|5--------------------------------|---------------------------------|
A|---------------------------------|5-----------5---5----------------|
E|------------3-----------3--------|---------------------------------|

G|---------------------------------|---------------------------------|
D|---------------------------------|----------------------------4----|
A|5-----------5--------------------|7-----------7--------------------|
E|---------------------------------|---------------------------------|

G|---------------------------------|---------------------------------|
D|5--------------------------------|---------------------------------|
A|---------------------------------|5-----------5---5-------5--------|
E|------------3-----------3--------|---------------------------------|

G|---------------------------------|---------------------------------|
D|---------------------------------|---------------------------------|
A|2-----------2-----------2---/----|7-----------7-----------7--------|
E|---------------------------------|---------------------------------|

G|---------------------------------|---------------------------------|
D|5--------------------------------|---------------------------------|
A|---------------------------------|5-----------5---5-------5--------|
E|------------3-------3---3--------|---------------------------------|

G|---------------------------------|---------------------------------|
D|---------------------------------|---------------------------------|
A|2-----------2-----------2---/----|7-----------7-----------7--------|
E|---------------------------------|---------------------------------|

G|---------------------------------|---------------------------------|
D|5-------5-------5-------5--------|5-------5-------5-------5--------|
A|------------5-------5-------5----|----5-------5-------5-------5----|
E|---------------------------------|---------------------------------|

G|---------------------------------|
D|5-------5-------5-------5--------|
A|------------5-------5-------5----|
E|---------------------------------|

G|---------------------------------|---------------------------------|
D|7---7---7------------------------|---------------------------------|
A|------------0---0---0---0---0----|0---0---0---0---0---0-------0----|
E|---------------------------------|---------------------------------|

[Chorus]
G|---------------------------------|---------------------------------|
D|--------------------2---4---0----|---------------------------------|
A|5-----------5--------------------|--------------------0---2---4----|
E|---------------------------------|3-----------3--------------------|

G|---------------------------------|---------------------------------|
D|---------------------------------|---------------------------------|
A|5-----------5-------4---2--------|--------------------2---4--------|
E|---------------------------------|5-----------5--------------------|

G|---------------------------------|---------------------------------|
D|--------------------2---4---0----|---------------------------------|
A|5--------------------------------|--------------------0---2---4----|
E|---------------------------------|3-----------3--------------------|

G|---------------------------------|---------------------------------|
D|---------------------------------|---------------------------------|
A|5-------------------2---4--------|5-----------5---------------4----|
E|------------5--------------------|--------5---------------5--------|

[Solo]
G|---------------------------------|---------------------------------|
D|--------------------2---4---0----|5--------------------------------|
A|5-----------5--------------------|--------------------0---2--------|
E|---------------------------------|------------3--------------------|

G|---------------------------------|---------------------------------|
D|---------------------------------|--------7---7--------------------|
A|5-----------5-------4------------|---------------------------------|
E|---------------------------------|5-----------------------5---7----|

G|---------------------------------|---------------------------------|
D|----------------------------5----|---------------------------------|
A|5-----------5-----------5-7------|--------------------0---2-----/--|
E|---------------------------------|3-----------3--------------------|

G|---------------------------------|---------------------------------|
D|---------------------------------|---------------------------------|
A|5-------\---0-------0---2---/----|5-----------5---5----------------|
E|---------------------------------|---------------------------------|

[Verse]
G|---------------------------------|---------------------------------|
D|---------------------------------|---------------------------------|
A|5-----------5--------------------|7-----------7--------------------|
E|---------------------------------|---------------------------------|

G|---------------------------------|---------------------------------|
D|5-----------5--------------------|---------------------------------|
A|---------------------------------|5-----------5---5----------------|
E|------------------------3--------|---------------------------------|

G|---------------------------------|---------------------------------|
D|---------------------------------|---------------------------------|
A|5-----------5--------------------|7-----------7--------------------|
E|---------------------------------|---------------------------------|

G|---------------------------------|---------------------------------|
D|------------5--------------------|---------------------------------|
A|------------------------5--------|5---5-------5---5-------5---\----|
E|3--------------------------------|---------------------------------|

G|---------------------------------|---------------------------------|
D|---------------------------------|---------------------------------|
A|2-----------2---------------/----|7-----------7--------------------|
E|---------------------------------|---------------------------------|

G|---------------------------------|---------------------------------|
D|5-----------5-----------5--------|---------------------------------|
A|---------------------------------|5-----------5-----------5--------|
E|---------------------------------|---------------------------------|

G|---------------------------------|---------------------------------|
D|---------------------------------|---------------------------------|
A|2-----------2-----------2---/----|7-----------7-----------7---\----|
E|---------------------------------|---------------------------------|

G|---------------------------------|---------------------------------|
D|5-------5-------5-------5--------|5-------5-------5-------5--------|
A|----5-------5-------5-------5----|----5-------5-------5-------5----|
E|---------------------------------|---------------------------------|

G|---------------------------------|---------------------------------|
D|5-------5-------5-------5--------|----7-------7-------7-------7----|
A|----5-------5-------5-------5----|0-------0-------0-------0--------|
E|---------------------------------|---------------------------------|

G|---------------------------------|
D|----7-------7-------7-------7----|
A|0-------0-------0-------0--------|
E|---------------------------------|

[Chorus]
G|---------------------------------|---------------------------------|
D|--------------------2---4---0----|5--------------------------------|
A|5-----------5--------------------|--------------------0---2---4----|
E|---------------------------------|------------3--------------------|

G|---------------------------------|---------------------------------|
D|---------------------------------|---------------------------------|
A|5-----------5-------4---2--------|--------------------2---4--------|
E|---------------------------------|5-----------5--------------------|

G|---------------------------------|---------------------------------|
D|--------------------2---4---0----|5--------------------------------|
A|5-----------5--------------------|--------------------0---2--------|
E|---------------------------------|------------3--------------------|

G|---------------------------------|---------------------------------|
D|---------------------------------|---------------------------------|
A|5-------\---0-------2---4---0----|5-------5-----------0---2--------|
E|---------------------------------|---------------------------------|

G|---------------------------------|---------------------------------|
D|--------------------2---4---0----|5--------------------------------|
A|5-----------5--------------------|--------------------0---2---4----|
E|---------------------------------|------------3--------------------|

G|---------------------------------|---------------------------------|
D|---------------------------------|------------7--------------------|
A|5-----------5-------4---2---0----|0---0---0-----------0---4--------|
E|---------------------------------|---------------------------------|

G|---------------------------------|---------------------------------|
D|--------------------2---4---0----|5--------------------------------|
A|5-----------5--------------------|--------------------0---2--------|
E|---------------------------------|------------3--------------------|

G|---------------------------------|---------------------------------|
D|---------------------------------|---------------------------------|
A|5---------------------------0----|5-------5-----------5------------|
E|------------7--------------------|---------------------------------|

[Outro]
G|---------------------------------|---------------------------------|
D|---------------------------------|---------------------------------|
A|2-------2-------2----------------|---------------------------------|
E|---------------------------------|3-------3-------3----------------|

G|---------------------------------|---------------------------------|
D|---------------------------------|---------------------------------|
A|2-------2-------2----------------|----------------------------4----|
E|---------------------------------|3-------3-------3-------5-7------|

G|---------------------------------|---------------------------------|
D|---------------------------------|---------------------------------|
A|5--------------------------------|---------------------------------|
E|---------------------------------|---------------------------------|


***********************************
/ = slide up
\ = slide down
***********************************

            
            
Suggest correction
Creating personal tab
Creating personal tab
You can edit any tab online and save it as your Personal.

You can edit, replace or remove any tab part or add personal notes – all changes will be seen only by you.

Personal tabs can be accessed anytime from any device, even offline.
Learn more »
Give kudos to tab author, rate the tab!
1 2 3 4 5
comments
print report bad tab
guest
You may want to rate the tab now too:
select rating
Wanna post a correction for this tab? Suggest correction