Oops, an error
Loading. Please wait.

Highway Bass Tab

13 views 3 this week
no commentswrite comment
1 2 3 4 5
3 more votes to show rating
add to favorites
launch autoscroll
font size
0
reset
guitar tuner
Autoscroll
slow
fast
+/-
esc
set tempo
stop
Help us to improve Ultimate-Guitar.com Take our survey!
×
Author
Difficulty
Intro :
G|---------------------------------|---------------------------------|
D|------------7-------\---0---0----|------------7-----5--------------|
A|-----/--9------------------------|-----/--9---------------5---5----|
E|7--------------------------------|7-------------------7------------|

G|---------------------------------|---------------------------------|
D|------------7-------\------------|------------7--------------------|
A|-----/--9---------------4---5----|-----/--9------------6--5---5----|
E|7--------------------------------|7--------------------------------|

Verse 1 :
G|---------------------------------|---------------------------------|
D|------------7--------------------|------------7---\----------------|
A|-----/--9------------2--5---5----|-----/--9---------------5---5----|
E|7--------------------------------|7-------------------7------------|

G|---------------------------------|---------------------------------|
D|------------7--------------------|------------7---\----------------|
A|------/-9-----------5-------5----|-----/--9---------------5---5----|
E|7---\-------------------7--------|7-------------------7------------|

G|---------------------------------|---------------------------------|
D|------------7--------------------|------------7---\----------------|
A|------/-9---------------5--------|-----/--9---------------5---5----|
E|7---\---------------7------------|7-------------------7------------|

G|---------------------------------|---------------------------------|
D|------------7--------------------|------------7---\----------------|
A|------/-9---------------5---5----|-----/--9---------------5---5----|
E|7--------------------------------|7-------------------7------------|

Chorus :
G|----4-------4-------4-------4----|----7-------7-------7-------7----|
D|---------------------------------|---------------------------------|
A|2-------2-------2-------2-----/--|5-------5-------5-------5--------|
E|---------------------------------|---------------------------------|

G|----9-------9-------9-------9----|----11------11------11------11---|
D|---------------------------------|---------------------------------|
A|7-------7-------7-------7-----/--|9-------9-------9-------9------\-|
E|---------------------------------|---------------------------------|

G|----4-------4-------4-------4----|----7-------7-------7-------7----|
D|---------------------------------|---------------------------------|
A|2-------2-------2-------2-----/--|5-------5-------5-------5--------|
E|---------------------------------|---------------------------------|

G|----9-------9-------9-------9----|----11------11-------------------|
D|---------------------------------|--------------------7-------7----|
A|7-------7-------7-------7-----/--|9-------9-------9-------9--------|
E|---------------------------------|---------------------------------|

Interlude :
G|---------------------------------|---------------------------------|
D|------------7--------------------|------------7---\----------------|
A|------/-9---------------5---5----|-----/--9---------------5---5----|
E|7--------------------------------|7--------------------------------|

G|---------------------------------|---------------------------------|
D|------------7---\----------------|------------7---\----------------|
A|------/-9---------------5---5----|-----/--9---------------5---5----|
E|7-------------------7------------|7-------------------7------------|

Verse 2 :
G|---------------------------------|---------------------------------|
D|------------7---7----------------|------------7--------------------|
A|------/-9---------------5---5----|------/-9---------------5---5----|
E|7---7---------------7------------|7---7---------------7------------|

G|---------------------------------|---------------------------------|
D|------------7--------------------|------------7--------------------|
A|------/-9---------------5---5----|------/-9---------------5---5----|
E|7---7---------------7------------|7---7---------------7------------|

G|---------------------------------|---------------------------------|
D|------------7--------------------|------------7--------------------|
A|------/-9---------------5---5----|------/-9---------------5---5----|
E|7---7---------------7------------|7---7---------------7------------|

G|---------------------------------|---------------------------------|
D|------------7-------\---0---0----|------------7-------9------------|
A|------/-9------------------------|-----/--9---------------5---5----|
E|7--------------------------------|7--------------------------------|

Chorus :
G|----4-------4-------4-------4----|----7-------7-------7-------7----|
D|---------------------------------|---------------------------------|
A|2-------2-------2-------2-----/--|5-------5-------5-------5--------|
E|---------------------------------|---------------------------------|

G|----9-------9-------9-------9----|----11------11------11------11---|
D|---------------------------------|---------------------------------|
A|7-------7-------7-------7-----/--|9-------9-------9-------9------\-|
E|---------------------------------|---------------------------------|

G|----4-------4-------4-------4----|----7-------7-------7-------7----|
D|---------------------------------|---------------------------------|
A|2-------2-------2-------2-----/--|5-------5-------5-------5--------|
E|---------------------------------|---------------------------------|

G|----9-------9-------9-------9----|----11------11-------------------|
D|---------------------------------|--------------------7-------7----|
A|7-------7-------7-------7-----/--|9-------9-------9-------9--------|
E|---------------------------------|---------------------------------|

G|----4-------4-------4-------4----|----7-------7-------7-------7----|
D|---------------------------------|---------------------------------|
A|2-------2-------2-------2-----/--|5-------5-------5-------5--------|
E|---------------------------------|---------------------------------|

G|----9-------9-------9-------9----|----11------11------11------11---|
D|---------------------------------|---------------------------------|
A|7-------7-------7-------7-----/--|9-------9-------9-------9------\-|
E|---------------------------------|---------------------------------|

G|----4-------4-------4-------4----|----7-------7-------7-------7----|
D|---------------------------------|---------------------------------|
A|2-------2-------2-------2-----/--|5-------5-------5-------5--------|
E|---------------------------------|---------------------------------|

G|----9-------9-------9-------9----|----11------11-------------------|
D|---------------------------------|--------------------7-------7----|
A|7-------7-------7-------7-----/--|9-------9-------9-------9--------|
E|---------------------------------|---------------------------------|

Interlude :
G|---------------------------------|---------------------------------|
D|------------7---\----------------|------------7-------\---0---0----|
A|------/-9---------------5---5----|------/-9------------------------|
E|7-------------------7------------|7---7----------------------------|

G|---------------------------------|---------------------------------|
D|------------7---\----------------|------------7---\----------------|
A|------/-9---------------5---5----|------/-9---------------5---5----|
E|7---7----------------------------|7---7----------------------------|

G|---------------------------------|---------------------------------|
D|------------7---\----------------|------------7---\----------------|
A|------/-9---------------5---5----|------/-9---------------5---5----|
E|7-------------------7------------|7---7---------------7------------|

G|---------------------------------|---------------------------------|
D|------------7---\----------------|------------7---\--------------3/|
A|------/-9---------------5---5----|-----/--9---------------5---5----|
E|7--------------------------------|7-------------------7------------|

G|---------------------------------|---------------------------------|
D|9---------------7----------------|6---------------5-------4------3/|
A|---------------------------------|---------------------------------|
E|---------------------------------|---------------------------------|

G|---------------------------------|---------------------------------|
D|9---------------7----------------|6---------------5-------4------3/|
A|---------------------------------|---------------------------------|
E|---------------------------------|---------------------------------|

G|---------------------------------|---------------------------------|
D|9---------------7----------------|6---------------5-------4--------|
A|---------------------------------|---------------------------------|
E|---------------------------------|---------------------------------|

G|---------------------------------|---------------------------------|
D|---------------------------------|-------------------------------3/|
A|---------------------------------|---------------------------------|
E|7---------------5----------------|4---------------3-------2--------|

G|---------------------------------|---------------------------------|
D|9---------------7----------------|6---------------5-------4------3/|
A|---------------------------------|---------------------------------|
E|---------------------------------|---------------------------------|

G|---------------------------------|---------------------------------|
D|9---------------7----------------|6---------------5-------4------3/|
A|---------------------------------|---------------------------------|
E|---------------------------------|---------------------------------|

Chorus :
G|----4-------4-------4-------4----|----7-------7-------7-------7----|
D|---------------------------------|---------------------------------|
A|2-------2-------2-------2-----/--|5-------5-------5-------5--------|
E|---------------------------------|---------------------------------|

G|----9-------9-------9-------9----|----11------11------11------11---|
D|---------------------------------|---------------------------------|
A|7-------7-------7-------7-----/--|9-------9-------9-------9------\-|
E|---------------------------------|---------------------------------|

G|----4-------4-------4-------4----|----7-------7-------7-------7----|
D|---------------------------------|---------------------------------|
A|2-------2-------2-------2-----/--|5-------5-------5-------5--------|
E|---------------------------------|---------------------------------|

G|----9-------9-------9-------9----|----11------11------11------11---|
D|---------------------------------|---------------------------------|
A|7-------7-------7-------7-----/--|9-------9-------9-------9------\-|
E|---------------------------------|---------------------------------|

G|----4-------4-------4-------4----|----7-------7-------7-------7----|
D|---------------------------------|---------------------------------|
A|2-------2-------2-------2-----/--|5-------5-------5-------5--------|
E|---------------------------------|---------------------------------|

G|----9-------9-------9-------9----|----11------11------11------11---|
D|---------------------------------|---------------------------------|
A|7-------7-------7-------7-----/--|9-------9-------9-------9------\-|
E|---------------------------------|---------------------------------|

G|----4-------4-------4-------4----|----7-------7-------7-------7----|
D|---------------------------------|---------------------------------|
A|2-------2-------2-------2-----/--|5-------5-------5-------5--------|
E|---------------------------------|---------------------------------|

G|----9-------9-------9-------9----|----11------11------11------11---|
D|---------------------------------|---------------------------------|
A|7-------7-------7-------7-----/--|9-------9-------9-------9------\-|
E|---------------------------------|---------------------------------|

G|---------------------------------|---------------------------------|
D|---------------------------------|---------------------------------|
A|---------------------------------|---------------------------------|
E|---------------------------------|---------------------------------|

G|---------------------------------|---------------------------------|
D|---------------------------------|---------------------------------|
A|---------------------------------|---------------------------------|
E|---------------------------------|---------------------------------|

G|---------------------------------|---------------------------------|
D|---------------------------------|---------------------------------|
A|---------------------------------|---------------------------------|
E|---------------------------------|---------------------------------|

G|---------------------------------|
D|---------------------------------|
A|----------------5---5---5---5----|
E|---------------------------------|

G|---------------------------------|---------------------------------|
D|---------------------------------|----------------4----------------|
A|2--------------------------------|2---2---2---2-------2---2---2----|
E|---------------------------------|---------------------------------|

G|---------------------------------|---------------------------------|
D|---------------------------------|---------------------------------|
A|0---0---0---0---5---5---5---5--1/|2---2---2---2---2---\------------|
E|---------------------------------|---------------------------------|

Outro (repeat) :
G|---------------------------------|---------------------------------|
D|----------------4----------------|---------------------------------|
A|2---2---2---2-------2---2---2----|0---0---0---0---5---5---5---5--1/|
E|---------------------------------|---------------------------------|

G|---------------------------------|4---4---4---4---4---\------------|
D|---------------------------------|---------------------------------|
A|2---2---2---2---2---\------------|---------------------------------|
E|---------------------------------|---------------------------------|

G|---------------------------------|---------------------------------|
D|----------------4----------------|---------------------------------|
A|2---2---2---2-------2---2---2----|0---0---0---0---5---5---5---5--1/|
E|---------------------------------|---------------------------------|

G|---------------------------------|---------------------------------|
D|---------------------------------|---------------------------------|
A|0---0---0---0---5---5---5---5--1/|2---2---2---2---2---\------------|
E|---------------------------------|---------------------------------|
Suggest correction
Give kudos to tab author, rate the tab!
1 2 3 4 5
comments
print report bad tab
guest
You may want to rate the tab now too:
select rating
Wanna post a correction for this tab? Suggest correction