Oops, an error
Loading. Please wait.

Honey Hush Bass Tab

31 views 9 this week
no commentswrite comment
1 2 3 4 5
3 more votes to show rating
add to favorites
launch autoscroll
font size
0
reset
guitar tuner
Autoscroll
slow
fast
+/-
esc
set tempo
stop
Help us to improve Ultimate-Guitar.com Take our survey!
×
00:04

Verse 1 :
G|---------------------------------|---------------------------------|
D|---------------------------------|----------------------------6----|
A|7--------------------------------|7--------------------------------|
E|----------------7----------------|----------------7----------------|

G|---------------------------------|---------------------------------|
D|7--------------------------------|7--------------------------------|
A|----------------7----------------|----------------7----------------|
E|---------------------------------|---------------------------------|

G|---------------------------------|---------------------------------|
D|---------------------------------|---------------------------------|
A|7---------------------------6----|7--------------------------------|
E|----------------7---7---7--------|----------------7----------------|

G|---------------------------------|---------------------------------|
D|---------------------------------|7--------------------------------|
A|---------------------------------|----------------7---7------------|
E|7---------------5---5------------|---------------------------------|

G|---------------------------------|---------------------------------|
D|---------------------------------|---------------------------------|
A|7---------------------------6----|7--------------------------------|
E|----------------7---7------------|----------------7----------------|

G|---------------------------------|---------------------------------|
D|---------------------------------|---------------------------------|
A|7---------------------------6----|7---------------------------6----|
E|----------------7----------------|----------------7---7------------|

G|---------------------------------|---------------------------------|
D|---------------------------------|----------------------------6----|
A|7--------------------------------|7--------------------------------|
E|----------------7----------------|----------------7----------------|

G|---------------------------------|---------------------------------|
D|7--------------------------------|7---------------------------7----|
A|----------------7----------------|----------------7---7------------|
E|---------------------------------|---------------------------------|

G|---------------------------------|---------------------------------|
D|---------------------------------|---------------------------------|
A|7--------------------------------|7--------------------------------|
E|----------------7---7------------|----------------7---7------------|

G|---------------------------------|---------------------------------|
D|---------------------------------|7--------------------------------|
A|----------------9---9------------|----------------7----------------|
E|7--------------------------------|---------------------------------|

G|---------------------------------|---------------------------------|
D|---------------------------------|---------------------------------|
A|7--------------------------------|7-----------------------6--------|
E|----------------7---7------------|----------------7----------------|

Guitar solo :
G|---------------------------------|---------------------------------|
D|---------------------------------|---------------------------------|
A|7---------------------------6----|7---------------------------6----|
E|----------------7---7------------|----------------7---7------------|

G|---------------------------------|---------------------------------|
D|---------------------------------|----------------------------6----|
A|7---------------------------6----|7--------------------------------|
E|----------------7---7------------|----------------7---7------------|

G|---------------------------------|---------------------------------|
D|7---------------------------6----|7--------------------------------|
A|----------------7---7------------|----------------7---7-------7----|
E|---------------------------------|---------------------------------|

G|---------------------------------|---------------------------------|
D|---------------------------------|---------------------------------|
A|7--------------------------------|7--------------------------------|
E|----------------7---7------------|----------------7---7------------|

G|---------------------------------|---------------------------------|
D|9---------------9----------------|7-----------------------6--------|
A|--------------------9------------|----------------7----------------|
E|---------------------------------|---------------------------------|

G|---------------------------------|---------------------------------|
D|---------------------------------|---------------------------------|
A|---------------------------------|---------------------------------|
E|0---------------7----------------|0---------------7----------------|

Chorus :
G|---------------------------------|---------------------------------|
D|---------------------------------|---------------------------------|
A|---------------------------------|---------------------------------|
E|0---------------7----------------|0---------------7----------------|

G|---------------------------------|---------------------------------|
D|---------------------------------|---------------------------------|
A|---------------------------------|---------------------------------|
E|0---------------7-----------7----|0---------------7-------6--------|

G|---------------------------------|---------------------------------|
D|7--------------------------------|7-----------------------6--------|
A|----------------7----7-----------|----------------7----------------|
E|---------------------------------|---------------------------------|

G|---------------------------------|---------------------------------|
D|---------------------------------|---------------------------------|
A|7---------------------------6----|7-----------------------6--------|
E|----------------7---7------------|----------------7----------------|

G|---------------------------------|---------------------------------|
D|9--------------------------------|7--------------------------------|
A|----------------9---9------------|----------------7----------------|
E|---------------------------------|---------------------------------|

G|---------------------------------|---------------------------------|
D|---------------------------------|---------------------------------|
A|7---------------------------6----|7---------------------------6----|
E|----------------7----------------|----------------7----------------|

Guitar solo :
G|---------------------------------|---------------------------------|
D|---------------------------------|---------------------------------|
A|7---------------------------6----|7---------------------------6----|
E|----------------7---7------------|----------------7---7------------|

G|---------------------------------|---------------------------------|
D|---------------------------------|---------------------------------|
A|7---------------------------6----|7--------------------------------|
E|----------------7---7------------|----------------7-------6--------|

G|---------------------------------|---------------------------------|
D|7---------------------------6----|7--------------------------------|
A|----------------7---7------------|----------------7---7-------7----|
E|---------------------------------|---------------------------------|

G|---------------------------------|---------------------------------|
D|---------------------------------|---------------------------------|
A|7--------------------------------|7--------------------------------|
E|----------------7---7------------|----------------7---7------------|

G|---------------------------------|---------------------------------|
D|9--------------------------------|7---------------7-----------6----|
A|----------------9----------------|--------------------7------------|
E|---------------------------------|---------------------------------|

G|---------------------------------|---------------------------------|
D|---------------------------------|---------------------------------|
A|7---------------------------6----|7---------------------------6----|
E|----------------7---7------------|----------------7---7------------|

Verse 2 :
G|---------------------------------|---------------------------------|
D|---------------------------------|---------------------------------|
A|7---------------------------6----|7---------------------------6----|
E|----------------7----------------|----------------7----------------|

G|---------------------------------|---------------------------------|
D|---------------------------------|---------------------------------|
A|7---------------------------6----|7--------------------------------|
E|----------------7---7------------|----------------7---7-------6----|

G|---------------------------------|---------------------------------|
D|7--------------------------------|7-----------------------6--------|
A|----------------7----------------|----------------7----------------|
E|---------------------------------|---------------------------------|

G|---------------------------------|---------------------------------|
D|---------------------------------|---------------------------------|
A|7---------------------------6----|7--------------------------------|
E|----------------7----------------|----------------7----------------|

G|---------------------------------|---------------------------------|
D|9--------------------------------|7--------------------------------|
A|----------------9----------------|----------------7----------------|
E|---------------------------------|---------------------------------|

G|---------------------------------|---------------------------------|
D|---------------------------------|---------------------------------|
A|7---------------------------6----|7---------------------------6----|
E|----------------7---7------------|----------------7---7------------|

Guitar solo :
G|---------------------------------|---------------------------------|
D|---------------------------------|---------------------------------|
A|7---------------------------6----|7---------------------------6----|
E|----------------7---7------------|----------------7---7------------|

G|---------------------------------|---------------------------------|
D|---------------------------------|---------------------------------|
A|7---------------------------6----|7--------------------------------|
E|----------------7---7------------|----------------7-------6--------|

G|---------------------------------|---------------------------------|
D|7--------------------------------|7--------------------------------|
A|----------------7----------------|----------------7---7------------|
E|---------------------------------|---------------------------------|

G|---------------------------------|---------------------------------|
D|---------------------------------|---------------------------------|
A|7---------------------------6----|7--------------------------------|
E|----------------7----------------|----------------7----------------|

G|---------------------------------|---------------------------------|
D|9-------9-------9-------9--------|7-----------7--------------------|
A|---------------------------------|----------------10------9--------|
E|---------------------------------|---------------------------------|

G|---------------------------------|---------------------------------|
D|---------------------------------|---------------------------------|
A|---------------------------------|---------------------------------|
E|0-----------0---7----------------|0---------------7----------------|

Verse 3 :
G|---------------------------------|---------------------------------|
D|---------------------------------|---------------------------------|
A|7---------------------------6----|7---------------------------6----|
E|----------------7----------------|----------------7----------------|

G|---------------------------------|---------------------------------|
D|---------------------------------|---------------------------------|
A|7---------------------------6----|7--------------------------------|
E|----------------7----------------|----------------7-------6--------|

G|---------------------------------|---------------------------------|
D|7--------------------------------|7--------------------------------|
A|----------------7----------------|----------------7-------7--------|
E|---------------------------------|---------------------------------|

G|---------------------------------|---------------------------------|
D|---------------------------------|---------------------------------|
A|7---------------------------6----|7-----------------------6--------|
E|----------------7---7------------|----------------7----------------|

G|---------------------------------|---------------------------------|
D|9--------------------------------|7---------------------------6----|
A|----------------9---9------------|----------------7---7------------|
E|---------------------------------|---------------------------------|

G|---------------------------------|---------------------------------|
D|---------------------------------|---------------------------------|
A|7---------------------------6----|7---------------------------6----|
E|----------------7---7------------|----------------7---7------------|

Chorus (outro) :
G|---------------------------------|---------------------------------|
D|---------------------------------|---------------------------------|
A|7---------------------------6----|7---------------------------6----|
E|----------------7---7------------|----------------7---7------------|

G|---------------------------------|---------------------------------|
D|---------------------------------|---------------------------------|
A|7---------------------------6----|7---------------------------6----|
E|----------------7---7------------|----------------7---7------------|

G|---------------------------------|---------------------------------|
D|7---7---7---7--------------------|7---7---7---------------6--------|
A|---------------------------------|----------------7----------------|
E|---------------------------------|---------------------------------|

G|---------------------------------|---------------------------------|
D|---------------------------------|---------------------------------|
A|7---7-----------------------6----|7--------------------------------|
E|----------------7----------------|----------------7----------------|

G|---------------------------------|---------------------------------|
D|9--------------------------------|7-----------------------6--------|
A|----------------9----------------|----------------7----------------|
E|---------------------------------|---------------------------------|

G|---------------------------------|---------------------------------|
D|---------------------------------|---------------------------------|
A|7---------------------------6----|7--------------------------------|
E|----------------7---7------------|------------0--------------------|
Suggest correction
Give kudos to tab author, rate the tab!
1 2 3 4 5
comments
print report bad tab
guest
You may want to rate the tab now too:
select rating
Wanna post a correction for this tab? Suggest correction