Oops, an error
Loading. Please wait.

How Kind Of You bass

version 2
version 2

Whole song

16 views 1 this week
no commentswrite comment
1 2 3 4 5
3 more votes to show rating
add to favorites
×
Save as Personal and add changes to this tab that will be seen only by you. Learn more ›
×
You can save this tab as Personal to edit and correct it or add notes. All changes will be seen only by you. Learn more »
launch autoscroll
font size
0
reset
guitar tuner
edit
Autoscroll
slow
fast
+/-
esc
set tempo
stop
Author
Difficulty
00:55
Verse 1 :
G|---------------------------------|---------------------------------|
D|---------------------------------|---------------------------------|
A|7--------------------------------|7--------------------------------|
E|---------------------------------|---------------------------------|

G|---------------------------------|---------------------------------|
D|---------------------------------|---------------------------------|
A|7--------------------------------|7--------------------------------|
E|---------------------------------|---------------------------------|

G|---------------------------------|---------------------------------|
D|---------------------------------|---------------------------------|
A|7--------------------------------|7--------------------------------|
E|---------------------------------|---------------------------------|

G|---------------------------------|---------------------------------|
D|---------------------------------|---------------------------------|
A|9--------------------------------|8--------------------------------|
E|---------------------------------|---------------------------------|

G|---------------------------------|---------------------------------|
D|---------------------------------|7--------------------------------|
A|7--------------------------------|--------------7h9----------------|
E|---------------------------------|---------------------------------|

G|---------------------------------|---------------------------------|
D|---------------------------------|----------------9----------------|
A|7--------------------------------|7--------------------------------|
E|---------------------------------|---------------------------------|

G|---------------------------------|---------------------------------|
D|---------------------------------|--------------------10--9--------|
A|7--------------------------------|7--------------------------------|
E|---------------------------------|---------------------------------|

G|---------------------------------|---------------------------------|
D|---------------------------------|---------------------------------|
A|9--------------------------------|8--------------------------------|
E|---------------------------------|---------------------------------|

G|---------------------------------|---------------------------------|
D|---------------------------------|7--------------------------------|
A|7-----------------------7--------|---------------------------------|
E|---------------------------------|---------------------------------|

Interlude :
G|---------------------------------|---------------------------------|
D|7---------------9----------------|10--------------9----------------|
A|---------------------------------|------------------------7--------|
E|---------------------------------|---------------------------------|

G|---------------------------------|---------------------------------|
D|7---------------9----------------|10--------------9----------------|
A|---------------------------------|---------------------------------|
E|---------------------------------|---------------------------------|

G|---------------------------------|---------------------------------|
D|7---------------9----------------|10--------------9----------------|
A|---------------------------------|---------------------------------|
E|---------------------------------|---------------------------------|

G|---------------------------------|9-------------------9------------|
D|------------------------9--------|---------------------------------|
A|7---------------7----------------|---------------------------------|
E|---------------------------------|---------------------------------|

Chorus :
G|---------------------------------|---------------------------------|
D|7--------------------------------|---------------------------------|
A|---------------------------------|---------------------------------|
E|---------------------------------|---------------------------------|

G|---------------------------------|---------------------------------|
D|---------------------------------|---------------------------------|
A|---------------------------------|---------------------------------|
E|---------------------------------|---------------------------------|

G|---------------------------------|---------------------------------|
D|---------------------------------|---------------------------------|
A|---------------------------------|---------------------------------|
E|---------------------------------|---------------------------------|

Verse 2 :
G|---------------------------------|---------------------------------|
D|11----------11------11--10--9----|7-----------7-----------9---10---|
A|---------------------------------|---------------------------------|
E|---------------------------------|---------------------------------|

G|---------------------------------|---------------------------------|
D|11----------11------11--10--9----|7-----------7-----------9---10---|
A|---------------------------------|---------------------------------|
E|---------------------------------|---------------------------------|

G|---------------------------------|---------------------------------|
D|11----------11------11--10--9----|7-----------7-----------7---8----|
A|---------------------------------|---------------------------------|
E|---------------------------------|---------------------------------|

G|---------------------------------|---------------------------------|
D|9-----------9-----------9---11---|12--------------12--12--12--12---|
A|---------------------------------|---------------------------------|
E|---------------------------------|---------------------------------|

G|---------------------------------|---------------------------------|
D|---------------------------------|7--------------------------------|
A|0--------------------------------|----------------7----------------|
E|---------------------------------|---------------------------------|

G|---------------------------------|---------------------------------|
D|11----------11------11--10--9----|7-----------7-----------9---10---|
A|---------------------------------|---------------------------------|
E|---------------------------------|---------------------------------|

G|---------------------------------|---------------------------------|
D|11----------11------11--10--9----|7-----------7-----------7---8----|
A|---------------------------------|---------------------------------|
E|---------------------------------|---------------------------------|

G|---------------------------------|---------------------------------|
D|9-----------9-----------9---11---|12--12--12--12--12--12--12--10---|
A|---------------------------------|---------------------------------|
E|---------------------------------|---------------------------------|

G|---------------------------------|---------------------------------|
D|---------------------------------|7---------------7----------------|
A|0--------------------------------|---------------------------------|
E|---------------------------------|---------------------------------|

Interlude :
G|---------------------------------|---------------------------------|
D|7---------------9----------------|10--------------9----------------|
A|---------------------------------|----------------------------7----|
E|---------------------------------|---------------------------------|

G|---------------------------------|---------------------------------|
D|7---------------9----------------|10--------------9----------------|
A|---------------------------------|---------------------------------|
E|---------------------------------|---------------------------------|

G|---------------------------------|---------------------------------|
D|7---------------9----------------|10--------------9----------------|
A|---------------------------------|---------------------------------|
E|---------------------------------|---------------------------------|

G|9-----------------------9--------|--------------------9------------|
D|---------------------------------|---------------------------------|
A|---------------------------------|7--------------------------------|
E|---------------------------------|---------------------------------|

G|---------------------------------|---------------------------------|
D|---------------------------------|---------------------------------|
A|0--------------------------------|---------------------------------|
E|---------------------------------|---------------------------------|

G|---------------------------------|---------------------------------|
D|---------------------------------|---------------------------------|
A|---------------------------------|---------------------------------|
E|---------------------------------|---------------------------------|

Chorus :
G|---------------------------------|---------------------------------|
D|---------------------------------|---------------------------------|
A|---------------------------------|---------------------------------|
E|---------------------------------|---------------------------------|

G|---------------------------------|---------------------------------|
D|---------------------------------|---------------------------------|
A|---------------------------------|9--------------------------------|
E|---------------------------------|---------------------------------|

G|---------------------------------|---------------------------------|
D|---------------------------------|---------------------------------|
A|9--------------------------------|9--------------------------------|
E|---------------------------------|---------------------------------|

G|----------------------------11---|---------------------------------|
D|---------------------------------|---------------------------------|
A|9--------------------------------|9--------------------------------|
E|---------------------------------|---------------------------------|

G|--------------------11------11---|----------------------------10---|
D|---------------------------------|---------------------------------|
A|9-----------------------9--------|8--------------------------------|
E|---------------------------------|---------------------------------|

G|--------------------10-----------|----------------------------10---|
D|---------------------------------|---------------------------------|
A|8--------------------------------|8--------------------------------|
E|---------------------------------|---------------------------------|

G|----------------------------9----|------------9-------9------------|
D|---------------------------------|---------------------------------|
A|7-----------7--------------------|7---------------7-------7--------|
E|---------------------------------|---------------------------------|

G|----------------------------9----|--------------------9------------|
D|---------------------------------|---------------------------------|
A|7--------------------------------|7-----------7--------------------|
E|---------------------------------|---------------------------------|

G|------------------------10-------|---------------------------------|
D|----------------------------10---|--------------------10-----------|
A|8--------------------------------|8--------------------------------|
E|---------------------------------|---------------------------------|

G|--------------------10--10--10---|----------------10------5--------|
D|---------------------------------|--------------------7-------7----|
A|8--------------------------------|8--------------------------------|
E|---------------------------------|---------------------------------|

G|--------------------9------------|------------9--------------------|
D|---------------------------------|----------------9-------9--------|
A|7--------------------------------|7-------------------7------------|
E|---------------------------------|---------------------------------|

G|--------------------9---9--------|------------9-----------9--------|
D|----------------------------9----|---------------------------------|
A|7--------------------------------|7-------------------7-------7----|
E|---------------------------------|---------------------------------|

G|--------------------9---9---7----|6--------------------------------|
D|---------------------------------|----9---7---6--------------------|
A|7--------------------------------|----------------9---7---6---7----|
E|---------------------------------|---------------------------------|

G|--------------------10------10---|--------------------10-----------|
D|---------------------------------|---------------------------------|
A|8--------------------------------|8-----------------------8--------|
E|---------------------------------|---------------------------------|

G|--------------------10------10---|--------------------9-------9----|
D|---------------------------------|------------------------7h9------|
A|8-----------------------8--------|7--------------------------------|
E|---------------------------------|---------------------------------|

G|------------9-------9------------|-----------/14----------14-------|
D|----------------9-------9---\----|---------------------------------|
A|7--------------------------------|12-------------------------------|
E|---------------------------------|---------------------------------|

G|-----------/14----------14-------|-----------/14----------14-------|
D|---------------------------------|---------------------------------|
A|12-------------------------------|12-------------------------------|
E|---------------------------------|---------------------------------|

G|-----------/14----------14-------|-----------/14----------14-------|
D|--------------------14-----------|---------------------------------|
A|12-------------------------------|12-------------------------------|
E|---------------------------------|---------------------------------|

G|-----------/14------14-----------|-----------/14----------14-------|
D|----------------14------14--\----|---------------------------------|
A|12-------------------------------|12-------------------------------|
E|---------------------------------|---------------------------------|

G|-----------/14----------14-------|---------------------------------|
D|---------------------------------|---------------------------------|
A|12-------------------------------|12-------------------------------|
E|---------------------------------|---------------------------------|

            
            
Suggest correction
Creating personal tab
Creating personal tab
You can edit any tab online and save it as your Personal.

You can edit, replace or remove any tab part or add personal notes – all changes will be seen only by you.

Personal tabs can be accessed anytime from any device, even offline.
Learn more »
Give kudos to tab author, rate the tab!
1 2 3 4 5
comments
print report bad tab
guest
You may want to rate the tab now too:
select rating
Wanna post a correction for this tab? Suggest correction