Oops, an error
Loading. Please wait.

I Do Bass Tab

28 views 1 this week
no commentswrite comment
1 2 3 4 5
3 more votes to show rating
add to favorites
launch autoscroll
font size
0
reset
guitar tuner
Autoscroll
slow
fast
+/-
esc
set tempo
stop
Help us to improve Ultimate-Guitar.com Take our survey!
×
No bass on Verse 1
Starts on "You'd understand"

[00:11]

[Chorus]

G|---------------------------------|---------------------------------|
D|5--------------------------------|----------------7-------4--------|
A|---------------------------------|5-----------5h7------------------|
E|----------------3----------------|---------------------------------|

G|---------------------------------|---------------------------------|
D|---------------------------------|---------------------------------|
A|7-------5-------4-------2--------|---------------------------------|
E|---------------------------------|5---5---4-------3-------1--------|

G|---------------------------------|------------------------9---\----|
D|---------------------------------|----------------9----------------|
A|2-----------2---5----------------|7--------------------------------|
E|---------------------------------|---------------------------------|

G|---------------------------------|---------------------------------|
D|7-----------7---7----------------|------------5-/-9-------7--------|
A|---------------------------------|5--------------------------------|
E|---------------------------------|---------------------------------|

G|---------------------------------|----------------9----------------|
D|------------7-/-9-------7--------|------------9-----------9--------|
A|---------------------------------|7--------------------------------|
E|7--------------------------------|---------------------------------|

G|---------------------------------|---------------------------------|
D|---------------------------------|------------------------7--------|
A|---------------------------------|----------------7----------------|
E|0-------3-------3-------0--------|5-----------5/7------------------|


[Verse 2]

G|---------------------------------|---------------------------------|
D|----------------5---5------------|7---------------7----------------|
A|---------------------------------|---------------------------------|
E|---------------------------------|---------------------------------|

G|---------------------------------|---------------------------------|
D|8-----------8---8-------7--------|----------------9-------6---7----|
A|---------------------------------|---------------------------------|
E|---------------------------------|7-----------7/9------------------|


[Chorus]

G|---------------------------------|---------------------------------|
D|---------------------------------|----------------7-------5--------|
A|----------------------------0-/--|5-----------5/7------------------|
E|3-----------3---3----------------|---------------------------------|

G|---------------------------------|---------------------------------|
D|---------------------------------|---------------------------------|
A|7-------5-------4-------2--------|---------------------------------|
E|---------------------------------|5---5---4-------3-------1--------|

G|---------------------------------|----------------9---7---6--------|
D|------------7-/-9-------7---7----|------------7/9-------------9----|
A|---------------------------------|---------------------------------|
E|7--------------------------------|---------------------------------|

G|---------------------------------|---------------------------------|
D|7--------------------------------|------------5-/-9-------7--------|
A|----------------0-------3--------|5--------------------------------|
E|---------------------------------|---------------------------------|

G|---------------------------------|---------------------------------|
D|7-----------7/9/11------9--------|---------------------------------|
A|---------------------------------|------------7--------------------|
E|---------------------------------|----------------0----------------|

G|---------------------------------|---------------------------------|
D|---------------------------------|---------------------------------|
A|7-----7-5-------4-----4-2--------|---------------------------------|
E|---------------------------------|5-------4-------3-------1--------|

G|---------------------------------|
D|---------------------------------|
A|5---------------5----------------|
E|------------3/5-------------5----|


[Bridge]

G|---------------------------------|---------------------------------|
D|---------------------------------|---------------------------------|
A|----------------------------3----|5-------5---0---5---0---5---0----|
E|0-------0---5---0-------5--------|---------------------------------|

G|---------------------------------|---------------------------------|
D|---------------------------------|---------------------------------|
A|----------------------------3----|5-------5---0---5---0---5---0----|
E|0-------0---5---0-------5--------|---------------------------------|

G|---------------------------------|---------------------------------|
D|---------------------------------|---------------------------------|
A|----------------------------3----|5-------5---0---5---0---5---0----|
E|0-------0---5---0-------5--------|---------------------------------|

G|---------------------------------|---------------------------------|
D|---------------------------------|---------------------------------|
A|--------2---5-----------5--------|---------------------------------|
E|3---------------3----------------|5---5---0---0---5---5---0---0----|


[Verse 3]

G|---------------------------------|---------------------------------|
D|----------------5---5------------|7---------------7----------------|
A|---------------------------------|---------------------------------|
E|---------------------------------|---------------------------------|

G|---------------------------------|---------------------------------|
D|8---8---8-------8-----------8----|------------9---7-------5--------|
A|---------------------------------|---------------------------------|
E|---------------------------------|7---7-/-9------------------------|


[Chorus]

G|---------------------------------|---------------------------------|
D|---------------------------------|--------5-------7-------4--------|
A|---------------------------------|5--------------------------------|
E|3-----------3---3---/---5--------|---------------------------------|

G|---------------------------------|---------------------------------|
D|---------------------------------|---------------------------------|
A|7---7---5-------4-------2--------|---------------------------------|
E|---------------------------------|5---5---4-------3-------1--------|

G|---------------------------------|----------------9---7---6--------|
D|------------7-/-9---9------------|------------7/9-------------9----|
A|---------------------------------|---------------------------------|
E|7--------------------------------|---------------------------------|

G|---------------------------------|---------------------------------|
D|7---------------7----------------|---------------------------------|
A|---------------------------------|5-------------5-4-------3--------|
E|---------------------------------|---------------------------------|

G|------------------------7--------|---------------------------------|
D|7---------------9----------------|---------------------------------|
A|---------------------------------|7-----------7--------------------|
E|---------------------------------|----------------0----------------|

G|---------------------------------|---------------------------------|
D|---------------------------------|------------------------7--------|
A|---------------------------------|----------------7----------------|
E|0-------3-------3-------0--------|5-----------5/7------------------|


[Outro]

G|---------------------------------|---------------------------------|
D|--------------------5---5--------|7--------------------------------|
A|------------5---5----------------|---------------------------------|
E|---------------------------------|---------------------------------|


************************************

| h  Hammer-on
| /  Slide up
| \  Slide down

************************************
Suggest correction
Give kudos to tab author, rate the tab!
1 2 3 4 5
comments
print report bad tab
guest
You may want to rate the tab now too:
select rating
Wanna post a correction for this tab? Suggest correction