Oops, an error
Loading. Please wait.

I Got Stung Bass Tab

28 views 1 this week
no commentswrite comment
1 2 3 4 5
3 more votes to show rating
add to favorites
launch autoscroll
font size
0
reset
guitar tuner
Autoscroll
slow
fast
+/-
esc
set tempo
stop
Help us to improve Ultimate-Guitar.com Take our survey!
×
Bass starts at 00:05

Verse 1 :
G|---------------------------------|---------------------------------|
D|------------------------4--------|7-------4------------------------|
A|--------4-------7----------------|----------------7-------4--------|
E|5--------------------------------|---------------------------------|

G|---------------------------------|---------------------------------|
D|------------------------4--------|7-------4------------------------|
A|--------4-------7----------------|----------------7-------4--------|
E|5--------------------------------|---------------------------------|

G|---------------------------------|---------------------------------|
D|------------------------4--------|7-------4------------------------|
A|--------4-------7----------------|----------------7-------4--------|
E|5--------------------------------|---------------------------------|

G|---------------------------------|---------------------------------|
D|------------------------4--------|7-------4------------------------|
A|--------4-------7----------------|----------------7-------4--------|
E|5--------------------------------|---------------------------------|

G|---------------------------------|---------------------------------|
D|--------4-------7-------4--------|--------4-------7-------4--------|
A|5--------------------------------|5--------------------------------|
E|---------------------------------|---------------------------------|

G|---------------------------------|---------------------------------|
D|---------------------------------|---------------------------------|
A|--------4-------7-------4--------|--------4-------7-------4--------|
E|5--------------------------------|5--------------------------------|

G|---------------------------------|---------------------------------|
D|---------------------------------|---------------------------------|
A|7-------7-------7----------------|--------5-------5----------------|
E|---------------------------------|---------------------------------|

Verse 2 :

G|---------------------------------|---------------------------------|
D|------------------------4--------|7-------4------------------------|
A|--------4-------7----------------|----------------7-------4--------|
E|5--------------------------------|---------------------------------|

G|---------------------------------|---------------------------------|
D|------------------------4--------|7-------4------------------------|
A|--------4-------7----------------|----------------7-------4--------|
E|5--------------------------------|---------------------------------|

G|---------------------------------|---------------------------------|
D|------------------------4--------|7-------4------------------------|
A|--------4-------7----------------|----------------7-------4--------|
E|5--------------------------------|---------------------------------|

G|---------------------------------|---------------------------------|
D|------------------------4--------|7-------4------------------------|
A|--------4-------7----------------|----------------7-------4--------|
E|5--------------------------------|---------------------------------|

G|---------------------------------|---------------------------------|
D|------------------------4--------|7-------4------------------------|
A|--------4-------7----------------|----------------7-------4--------|
E|5--------------------------------|---------------------------------|

G|---------------------------------|---------------------------------|
D|--------4-------7-------4--------|--------4-------5-------6--------|
A|5--------------------------------|5--------------------------------|
E|---------------------------------|---------------------------------|

G|---------------------------------|---------------------------------|
D|7-------4------------------------|---------------------------------|
A|----------------7-------4--------|--------4-------7-------4--------|
E|---------------------------------|5--------------------------------|

G|---------------------------------|---------------------------------|
D|---------------------------------|---------------------------------|
A|7-------7-------7----------------|--------5-------5----------------|
E|---------------------------------|---------------------------------|

Interlude :
G|---------------------------------|---------------------------------|
D|------------------------4--------|7--------------------------------|
A|--------4-------7----------------|--------2-------3-------4--------|
E|5--------------------------------|---------------------------------|

Chorus :
G|---------------------------------|---------------------------------|
D|--------4-------7-------4--------|---------------------------------|
A|5--------------------------------|--------4-------7-------4--------|
E|---------------------------------|5--------------------------------|

G|---------------------------------|---------------------------------|
D|---------------------------------|---------------------------------|
A|---------------------------------|--------4-------7-------4--------|
E|0-------4-------7-------4--------|5--------------------------------|

G|---------------------------------|---------------------------------|
D|--------4-------7-------4--------|--------4-------5-------6--------|
A|5--------------------------------|5--------------------------------|
E|---------------------------------|---------------------------------|

G|---------------------------------|---------------------------------|
D|---------------------------------|---------------------------------|
A|---------------------------------|---------------------------------|
E|7-------7-------7-------7--------|7-------7-------7-------7--------|

G|---------------------------------|---------------------------------|
D|---------------------------------|7-------4------------------------|
A|---------------------------------|----------------7-------4--------|
E|5--------------------------------|---------------------------------|

Verse 3 :
G|---------------------------------|---------------------------------|
D|------------------------4--------|7-------4------------------------|
A|--------4-------7----------------|----------------7-------4--------|
E|5--------------------------------|---------------------------------|

G|------------------------4--------|7-------4------------------------|
D|--------4-------7----------------|----------------7-------4--------|
A|5--------------------------------|---------------------------------|
E|---------------------------------|---------------------------------|

G|---------------------------------|---------------------------------|
D|7-------4------------------------|---------------------------------|
A|----------------7-------4--------|--------4-------7-------4--------|
E|---------------------------------|5--------------------------------|

G|---------------------------------|---------------------------------|
D|---------------------------------|---------------------------------|
A|7-------7-------7----------------|--------5-------5----------------|
E|---------------------------------|---------------------------------|

Interlude :
G|---------------------------------|---------------------------------|
D|------------------------4--------|7-------4------------------------|
A|--------4-------7----------------|----------------7-------4--------|
E|5--------------------------------|---------------------------------|

G|---------------------------------|---------------------------------|
D|7-------4------------------------|7-------4------------------------|
A|----------------7-------4--------|----------------7-------4--------|
E|---------------------------------|---------------------------------|

G|---------------------------------|---------------------------------|
D|7-------4------------------------|7--------------------------------|
A|----------------7-------4--------|--------2-------3-------4--------|
E|---------------------------------|---------------------------------|

Chorus :
G|---------------------------------|---------------------------------|
D|--------4-------7-------4--------|---------------------------------|
A|5--------------------------------|--------4-------7-------4--------|
E|---------------------------------|5--------------------------------|

G|---------------------------------|---------------------------------|
D|---------------------------------|---------------------------------|
A|---------------------------------|--------4-------7-------4--------|
E|0-------4-------7-------4--------|5--------------------------------|

G|---------------------------------|---------------------------------|
D|--------4-------7-------4--------|--------4-------5-------6--------|
A|5--------------------------------|5--------------------------------|
E|---------------------------------|---------------------------------|

G|---------------------------------|---------------------------------|
D|---------------------------------|---------------------------------|
A|---------------------------------|---------------------------------|
E|7-------7-------7-------7--------|7-------7-------7-------7--------|

G|---------------------------------|---------------------------------|
D|---------------------------------|------------------------7--------|
A|---------------------------------|---------------------------------|
E|---------------------------------|---------------------------------|

G|---------------------------------|---------------------------------|
D|------------------------4--------|7-------4------------------------|
A|--------4-------7----------------|----------------7-------4--------|
E|5--------------------------------|---------------------------------|

G|---------------------------------|---------------------------------|
D|------------------------4--------|7-------4------------------------|
A|--------4-------7----------------|----------------7-------4--------|
E|5--------------------------------|---------------------------------|

G|---------------------------------|---------------------------------|
D|--------4-------7-------4--------|--------4-------7-------4--------|
A|5--------------------------------|5--------------------------------|
E|---------------------------------|---------------------------------|

G|---------------------------------|---------------------------------|
D|7-------4------------------------|7-------4------------------------|
A|----------------7-------4--------|----------------7-------4--------|
E|---------------------------------|---------------------------------|

G|---------------------------------|---------------------------------|
D|---------------------------------|---------------------------------|
A|7-------7-------7----------------|--------5-------5----------------|
E|---------------------------------|---------------------------------|

G|---------------------------------|---------------------------------|
D|------------------------4--------|7-------4------------------------|
A|--------4-------7----------------|----------------7-------4--------|
E|5--------------------------------|---------------------------------|

G|---------------------------------|---------------------------------|
D|---------------------------------|---------------------------------|
A|--------7-------7----------------|--------5-------5----------------|
E|5--------------------------------|---------------------------------|

G|---------------------------------|---------------------------------|
D|------------------------4--------|7-------4------------------------|
A|--------4-------7----------------|----------------7-------4--------|
E|5--------------------------------|---------------------------------|

G|---------------------------------|---------------------------------|
D|---------------------------------|---------------------------------|
A|--------7-------7----------------|--------5-------5----------------|
E|5--------------------------------|---------------------------------|
 
G|---------------------------------|---------------------------------|
D|------------------------4--------|7-------4------------------------|
A|--------4-------7----------------|----------------7-------4--------|
E|5--------------------------------|---------------------------------|
Outro : (repeat and fade)
G|---------------------------------|---------------------------------|
D|7-------4------------------------|7-------4------------------------|
A|----------------7-------4--------|----------------7-------4--------|
E|---------------------------------|---------------------------------|
Suggest correction
Give kudos to tab author, rate the tab!
1 2 3 4 5
comments
print report bad tab
guest
You may want to rate the tab now too:
select rating
Wanna post a correction for this tab? Suggest correction