Oops, an error
Loading. Please wait.

I Owe It All To You Bass Tab

19 views 1 this week
1 commentread comment
1 2 3 4 5
2 more votes to show rating
add to favorites
launch autoscroll
font size
0
reset
guitar tuner
Autoscroll
slow
fast
+/-
esc
set tempo
stop
Help us to improve Ultimate-Guitar.com Take our survey!
×
Verse 1 : no bass

Bass starts from 00:48 
                                        X   X   X   X   X   X   X
G|---------------------------------|---------------------------------|
D|---------------------------------|---------------------------------|
A|---------------------------------|---------------------------------|
E|---------------------------------|-------------------------------0-|
  Projected   on a wall   of stone
Bridge
G|---------------------------------|---------------------------------|
D|---------------------------------|---------------------------------|
A|---------------------------------|3-----------3---3-------3--------|
E|1-----------1---1----------------|----------------------------0----|

G|---------------------------------|---------------------------------|
D|---------------------------------|---------------------------------|
A|---------------------------------|3-----------3---3-------3--------|
E|1-----------1---1-----------1----|----------------------------0----|

G|---------------------------------|---------------------------------|
D|---------------------------------|---------------------------------|
A|---------------------------------|---------------------------------|
E|1-----------1---1-----------1----|5-----------5---5-------5---3----|

G|---------------------------------|---------------------------------|
D|---------------------------------|---------------------------------|
A|---------------------------------|---------------------------------|
E|3-----------3---3-----------3----|1-----------1---1-----------1----|

G|---------------------------------|
D|---------------------------------|
A|------------------------3------3/|
E|1-----------1---1---1-------1----|

Chorus
G|---------------------------------|---------------------------------|
D|---------------------------------|---------------------------------|
A|5-----------5---5-----------5----|----------------------------0----|
E|---------------------------------|3-----------3---3-------3--------|

G|---------------------------------|---------------------------------|
D|---------------------------------|---------------------------------|
A|3-----------3---2-----------2----|0-----------0---0-------3---0----|
E|---------------------------------|---------------------------------|

G|---------------------------------|---------------------------------|
D|---------------------------------|---------------------------------|
A|5-----------5---5-----------5----|---------------------------------|
E|---------------------------------|3-----------3---3-----------3----|

G|---------------------------------|
D|---------------------------------|
A|3-----------3---3------/12-------|
E|---------------------------------|

Interlude
G|---------------------------------|---------------------------------|
D|---------------------------------|---------------------------------|
A|0-----------0---0-----------0----|3-----------3---3-----------3----|
E|---------------------------------|---------------------------------|

G|---------------------------------|---------------------------------|
D|---------------------------------|---------------------------------|
A|0-----------0---2-----------2----|3-----------0---2----------------|
E|---------------------------------|------------------------0--------|
 
G|---------------------------------|---------------------------------|
D|---------------------------------|---------------------------------|
A|0-----------0---0-----------0----|3-----------3---3-----------3----|
E|---------------------------------|---------------------------------|

G|---------------------------------|---------------------------------|
D|---------------------------------|----------------------------2----|
A|0-----------0---2-----------2----|3-----------3---2-------2--------|
E|---------------------------------|---------------------------------|

Verse 2
G|---------------------------------|---------------------------------|
D|---------------------------------|---------------------------------|
A|0-----------0---2-----------2----|3-----------3---2-----------2----|
E|---------------------------------|---------------------------------|

G|---------------------------------|---------------------------------|
D|---------------------------------|---------------------------------|
A|0-----------0---0-----------0----|3-----------0---2----------------|
E|---------------------------------|------------------------0--------|

G|---------------------------------|---------------------------------|
D|---------------------------------|---------------------------------|
A|0-----------0---2-----------2----|3-----------3---2-----------2----|
E|---------------------------------|---------------------------------|

G|---------------------------------|---------------------------------|
D|---------------------------------|---------------------------------|
A|0-----------0--------------------|---------------------------------|
E|----------------3-----------3----|1-----------1---1-------1---1----|

Bridge
G|---------------------------------|---------------------------------|
D|---------------------------------|---------------------------------|
A|---------------------------------|3-----------3---3-------3--------|
E|1-----------1---1-----------1----|----------------------------0----|

G|---------------------------------|---------------------------------|
D|---------------------------------|---------------------------------|
A|---------------------------------|3-----------3---3-------3--------|
E|1-----------1---1-----------1----|----------------------------0----|

G|---------------------------------|---------------------------------|
D|---------------------------------|---------------------------------|
A|---------------------------------|---------------------------------|
E|1-----------1---1-----------1----|5-----------5---5-------5---3----|

G|---------------------------------|---------------------------------|
D|---------------------------------|---------------------------------|
A|---------------------------------|---------------------------------|
E|3-----------3---3-----------3----|1-----------1---1-----------1----|

G|---------------------------------|
D|---------------------------------|
A|------------------------3------3/|
E|1-----------1---1---1-------1----|

Chorus :
G|---------------------------------|---------------------------------|
D|---------------------------------|---------------------------------|
A|5-----------5---5-----------5----|---------------------------------|
E|---------------------------------|3-----------3---3-----------3----|

G|---------------------------------|---------------------------------|
D|---------------------------------|--------------------9-------9-\--|
A|3-----------3---2-----------2----|0-----------0---0-------7--------|
E|---------------------------------|---------------------------------|

G|---------------------------------|---------------------------------|
D|---------------------------------|---------------------------------|
A|5-----------5---5-----------5----|---------------------------------|
E|---------------------------------|3-----------3---3-----------3----|

G|---------------------------------|---------------------------------|
D|------------------------7---5----|---------------------------------|
A|3-----------3---3----------------|5-----------5---5-----------5----|
E|---------------------------------|---------------------------------|

G|---------------------------------|---------------------------------|
D|---------------------------------|---------------------------------|
A|---------------------------------|3-----------3---2-----------2----|
E|3-----------3---3-----------3----|---------------------------------|

G|---------------------------------|---------------------------------|
D|---------------------------------|---------------------------------|
A|0-----------0---0-------3---0----|5-----------5---5-----------5----|
E|---------------------------------|---------------------------------|

G|---------------------------------|---------------------------------|
D|---------------------------------|---------------------------------|
A|---------------------------------|3-----------3---3-----------2----|
E|3-----------3---3-----------3----|---------------------------------|

Interlude 
G|---------------------------------|---------------------------------|
D|---------------------------------|---------------------------------|
A|0-----------0---2-----------2----|3-----------3---2-----------2----|
E|---------------------------------|---------------------------------|

G|---------------------------------|---------------------------------|
D|---------------------------------|---------------------------------|
A|0-----------0---2-----------2----|3-----------0---2----------------|
E|---------------------------------|------------------------0--------|

G|---------------------------------|---------------------------------|
D|---------------------------------|---------------------------------|
A|0-----------0---2-----------2----|3-----------3---2-----------2----|
E|---------------------------------|---------------------------------|

G|---------------------------------|---------------------------------|
D|---------------------------------|---------------------------------|
A|0-----------0--------------------|---------------------------------|
E|----------------3-----------3----|1-----------1---1-------1---1----|

Bridge
G|---------------------------------|---------------------------------|
D|---------------------------------|---------------------------------|
A|---------------------------------|3-----------3---3-------3--------|
E|1-----------1---1-----------1----|----------------------------0----|

G|---------------------------------|---------------------------------|
D|---------------------------------|---------------------------------|
A|---------------------------------|3-----------3---3-------3--------|
E|1-----------1---1-----------1----|----------------------------0----|

G|---------------------------------|---------------------------------|
D|---------------------------------|---------------------------------|
A|---------------------------------|---------------------------------|
E|1-----------1---1-----------1----|5-----------5---5-------5---3----|

G|---------------------------------|---------------------------------|
D|---------------------------------|---------------------------------|
A|---------------------------------|---------------------------------|
E|3-----------3---3-----------3----|1-----------1---1-----------1----|

G|---------------------------------|
D|---------------------------------|
A|------------------------3------3/|
E|1-----------1---1---1-------1----|

Chorus
G|---------------------------------|---------------------------------|
D|---------------------------------|---------------------------------|
A|5-----------5---5-----------5----|---------------------------------|
E|---------------------------------|3-----------3---3-----------3----|

G|---------------------------------|---------------------------------|
D|---------------------------------|---------------------------------|
A|3-----------3---2-----------2----|0-----------0---0-------3---0----|
E|---------------------------------|---------------------------------|

G|---------------------------------|---------------------------------|
D|---------------------------------|---------------------------------|
A|5-----------5---5-----------5----|---------------------------------|
E|---------------------------------|3-----------3---3-----------3----|

Outro
G|---------------------------------|---------------------------------|
D|---------------------------------|---------------------------------|
A|0-----------0---2-----------2----|3-----------3---2-----------2----|
E|---------------------------------|---------------------------------|

G|---------------------------------|---------------------------------|
D|---------------------------------|---------------------------------|
A|0-----------0---2-----------2----|3-----------0---2----------------|
E|---------------------------------|------------------------0--------|

G|---------------------------------|---------------------------------|
D|---------------------------------|---------------------------------|
A|0-----------0---2-----------2----|3-----------3---2-----------2----|
E|---------------------------------|---------------------------------|

G|---------------------------------|---------------------------------|
D|---------------------------------|---------------------------------|
A|0-----------0---2-----------2----|3-----------0---2----------------|
E|---------------------------------|------------------------0---3----|

G|---------------------------------|---------------------------------|
D|---------------------------------|---------------------------------|
A|0-----------0---2-----------2----|3-----------3---2-----------2----|
E|---------------------------------|---------------------------------|

G|---------------------------------|---------------------------------|
D|---------------------------------|---------------------------------|
A|0-----------0---2-----------2----|3-----------0---2----------------|
E|---------------------------------|------------------------0--------|

G|---------------------------------|---------------------------------|
D|---------------------------------|---------------------------------|
A|0-----------0---2-----------2----|3-----------3---2-----------2----|
E|---------------------------------|---------------------------------|

G|---------------------------------|---------------------------------|
D|---------------------------------|---------------------------------|
A|0-----------0---2-----------2----|3-----------0---2-------7---7----|
E|---------------------------------|---------------------------------|

G|---------------------------------|---------------------------------|
D|---------------------------------|---------------------------------|
A|0-----------0---2-----------2----|3-----------3---2-----------2----|
E|---------------------------------|---------------------------------|

G|---------------------------------|---------------------------------|
D|---------------------------------|---------------------------------|
A|0-----------0---2-----------2----|3-----------0---2----------------|
E|---------------------------------|------------------------0--------|

G|---------------------------------|---------------------------------|
D|---------------------------------|---------------------------------|
A|0-----------0---2-----------2----|3-----------3---2-----------2----|
E|---------------------------------|---------------------------------|

G|---------------------------------|---------------------------------|
D|---------------------------------|---------------------------------|
A|0-----------0---2-----------2----|3-------3---3---2----------------|
E|---------------------------------|---------------------------------|

G|---------------------------------|---------------------------------|
D|---------------------------------|---------------------------------|
A|0-----------0---2-----------2----|3-----------3---2-----------2----|
E|---------------------------------|---------------------------------|

G|---------------------------------|---------------------------------|
D|---------------------------------|---------------------------------|
A|0-----------0---2-----------2----|3-----------0---2----------------|
E|---------------------------------|------------------------0--------|

G|---------------------------------|---------------------------------|
D|---------------------------------|---------------------------------|
A|0-----------0---2-----------2----|3-----------3---2-----------2----|
E|---------------------------------|---------------------------------|

G|---------------------------------|---------------------------------|
D|---------------------------------|---------------------------------|
A|0-----------0---2-----------2----|3--------------------------------|
E|---------------------------------|---------------------------------|
Suggest correction
Give kudos to tab author, rate the tab!
1 2 3 4 5
comments
print report bad tab
1 comment total.
0 reply
SixOClockBoos 277 Oct 06, 2016 11:14 PM

Finally someone has tabbed this wonderful song. Many thanks for this!

guest
You may want to rate the tab now too:
select rating
Wanna post a correction for this tab? Suggest correction