Oops, an error
Loading. Please wait.

Ill Give You A Ring bass

13 views 1 this week
no commentswrite comment
1 2 3 4 5
3 more votes to show rating
add to favorites
×
Save as Personal and add changes to this tab that will be seen only by you. Learn more ›
×
You can save this tab as Personal to edit and correct it or add notes. All changes will be seen only by you. Learn more »
launch autoscroll
font size
0
reset
guitar tuner
edit
Autoscroll
slow
fast
+/-
esc
set tempo
stop
Author
Difficulty
Intro :
G|---------------------------------|---------------------------------|
D|---------------------------------|---------------------------------|
A|3-------3-------3-------3--------|3-------3-------3----------------|
E|---------------------------------|---------------------------------|

Verse 1 :
G|---------------------------------|---------------------------------|
D|---------------------------------|-------------------------------2-|
A|3-------3-------3-------3--------|5-------5-------5-------5--------|
E|---------------------------------|---------------------------------|

G|---------------------------------|---------------------------------|
D|3-------3------------------------|---------------------------------|
A|---------------------------------|7-----------7---6-----------6----|
E|----------------1-------1--------|---------------------------------|

G|---------------------------------|---------------------------------|
D|---------------------------------|---------------------------------|
A|5-----------5--------------------|3-------3-------3-------3---/-7--|
E|----------------3-----------3----|---------------------------------|

G|---------------------------------|---------------------------------|
D|7---------------7----------------|5-------5------------------------|
A|------------3/7-------------5----|------------5--------------------|
E|---------------------------------|----------------3----------------|

Chorus :
G|---------------------------------|---------------------------------|
D|---------------------------------|---------------------------------|
A|----------------1-------1--------|3-------3-------3-------3--------|
E|4-------4------------------------|---------------------------------|

G|---------------------------------|---------------------------------|
D|---------------------------------|---------------------------------|
A|----------------1-------1--------|3-------3-------3---\------------|
E|4-------4------------------------|------------3--------------------|

Verse 2 :
G|---------------------------------|---------------------------------|
D|---------------------------------|---------------------------------|
A|3-------3-------3-------3--------|5-------5-------5-------5--------|
E|---------------------------------|---------------------------------|

G|---------------------------------|---------------------------------|
D|3-------3------------------------|---------------------------------|
A|---------------------------------|7-----------7---6-----------6----|
E|----------------1-------1--------|---------------------------------|

G|---------------------------------|---------------------------------|
D|---------------------------------|---------------------------------|
A|5-----------5--------------------|3-------3-------3-------3---/-7--|
E|----------------3-------3--------|---------------------------------|

G|---------------------------------|---------------------------------|
D|7---------------7----------------|5-------5------------------------|
A|------------3/7-------------5----|------------5--------------------|
E|---------------------------------|----------------3-----------3----|

Chorus :
G|---------------------------------|---------------------------------|
D|---------------------------------|---------------------------------|
A|----------------1-------1------1-|3-------3-------3-------3--------|
E|4-------4------------------------|---------------------------------|

Bridge :
G|---------------------------------|---------------------------------|
D|---------------------------------|---------------------------------|
A|---------------------------------|3-----------3---2-----------2----|
E|3-------3-------3-------3--------|---------------------------------|

G|---------------------------------|---------------------------------|
D|---------------------------------|---------------------------------|
A|0-----------0--------------------|--------3---------------3--------|
E|----------------3-----------3----|1---------------1----------------|

G|---------------------------------|---------------------------------|
D|---------------------------------|---------------------------------|
A|---------------------------------|3-----------3---2-----------2----|
E|1-------1---/---3-------3--------|---------------------------------|

G|---------------------------------|
D|---------------------------------|
A|0--------------------------------|
E|------------3---1-------3---\----|

Verse 3 :
G|---------------------------------|---------------------------------|
D|---------------------------------|---------------------------------|
A|3-------3-------3-------3--------|5-------5-------5-------5--------|
E|---------------------------------|---------------------------------|

G|---------------------------------|---------------------------------|
D|3-------3-------3-------3--------|---------------------------------|
A|---------------------------------|7-----------7---6-----------6----|
E|---------------------------------|---------------------------------|

G|---------------------------------|---------------------------------|
D|---------------------------------|---------------------------------|
A|5-----------5-/-10---------------|3-------3-------3-------3---/-7--|
E|---------------------------------|---------------------------------|

G|---------------------------------|---------------------------------|
D|7---------------7----------------|5-------5------------------------|
A|------------7---------------5----|------------5--------------------|
E|---------------------------------|----------------3-----------3----|

Chorus :
G|---------------------------------|---------------------------------|
D|---------------------------------|---------------------------------|
A|----------------1-------1--------|3-------3-------3-------3--------|
E|4-------4------------------------|---------------------------------|

G|---------------------------------|---------------------------------|
D|---------------------------------|---------------------------------|
A|----------------1-------1--------|3-------3-------3-------3--------|
E|4-------4------------------------|---------------------------------|

G|---------------------------------|---------------------------------|
D|---------------------------------|---------------------------------|
A|----------------1-------1--------|3-------3-------3----------------|
E|4-------4------------------------|---------------------------------|

Bridge :
G|---------------------------------|---------------------------------|
D|---------------------------------|---------------------------------|
A|---------------------------------|3-----------3---2-----------2----|
E|3-------3-------3-------3---3----|---------------------------------|

G|---------------------------------|---------------------------------|
D|---------------------------------|---------------------------------|
A|0-----------0--------------------|--------3---------------3--------|
E|----------------3-----------3----|1---------------1----------------|

G|---------------------------------|---------------------------------|
D|---------------------------------|---------------------------------|
A|---------------------------------|3-----------3---2-----------2----|
E|1-------1---/---3-------3---3----|---------------------------------|

G|---------------------------------|
D|---------------------------------|
A|0--------------------------------|
E|------------3---1-------3---\----|

Verse 4 :
G|---------------------------------|---------------------------------|
D|---------------------------------|----------------------------2----|
A|3-------3-------3-------3--------|5-------5-------5-------5--------|
E|---------------------------------|---------------------------------|

G|---------------------------------|---------------------------------|
D|3-------3---\--------------------|---------------------------------|
A|---------------------------------|7-----------7---6-----------6----|
E|----------------1-------1--------|---------------------------------|

G|---------------------------------|---------------------------------|
D|---------------------------------|---------------------------------|
A|5-----------5--------------------|3-------3-------3-------3---/-7--|
E|----------------3-------3--------|---------------------------------|

G|---------------------------------|---------------------------------|
D|7---------------7------------0-/-|5-------5-------------------5----|
A|------------7--------------------|------------5--------------------|
E|---------------------------------|----------------3----------------|

Chorus :
G|---------------------------------|---------------------------------|
D|---------------------------------|---------------------------------|
A|----------------1-------1--------|3-------3-------3-------3--------|
E|4-------4------------------------|---------------------------------|

G|---------------------------------|---------------------------------|
D|---------------------------------|---------------------------------|
A|----------------1-------1--------|3-------3-------3-------3--------|
E|4-------4------------------------|---------------------------------|

G|---------------------------------|---------------------------------|
D|---------------------------------|---------------------------------|
A|----------------1-------1--------|3-------3-------3-------3--------|
E|4-------4------------------------|---------------------------------|

G|---------------------------------|---------------------------------|
D|---------------------------------|---------------------------------|
A|----------------1-------1--------|3--------------------------------|
E|4-------4------------------------|---------------------------------|
Suggest correction
Creating personal tab
Creating personal tab
You can edit any tab online and save it as your Personal.

You can edit, replace or remove any tab part or add personal notes – all changes will be seen only by you.

Personal tabs can be accessed anytime from any device, even offline.
Learn more »
Give kudos to tab author, rate the tab!
1 2 3 4 5
comments
print report bad tab
guest
You may want to rate the tab now too:
select rating
Wanna post a correction for this tab? Suggest correction