Oops, an error
Loading. Please wait.

Im Down bass

58 views 1 this week
no commentswrite comment
1 2 3 4 5
3 more votes to show rating
add to favorites
×
Save as Personal and add changes to this tab that will be seen only by you. Learn more ›
×
You can save this tab as Personal to edit and correct it or add notes. All changes will be seen only by you. Learn more »
launch autoscroll
font size
0
reset
guitar tuner
edit
Autoscroll
slow
fast
+/-
esc
set tempo
stop
Author
Difficulty
Version from 2009 Good Evening New York City CD

It's a very very fast song

Verse :
G|---------------------------------|---------------------------------|
D|5--------------------------------|---------------------------------|
A|---------------------------------|---------------------------------|
E|---------------------------------|---------------------------------|

G|---------------------------------|---------------------------------|
D|5--------------------------------|---------------------------------|
A|---------------------------------|---------------------------------|
E|---------------------------------|---------------------------------|

Chorus :
G|---------------------------------|---------------------------------|
D|---------------------------------|---------------------------------|
A|3-------3---3---3---3---3---2----|3---3---3---3---3---3---3---3----|
E|---------------------------------|---------------------------------|

G|---------------------------------|---------------------------------|
D|5---5---5---5---5---5---5---5----|5---5---5---5---5---5---5---5----|
A|---------------------------------|---------------------------------|
E|---------------------------------|---------------------------------|

G|---------------------------------|---------------------------------|
D|---------------------------------|---------------------------------|
A|3---3---3---3---3---3---3---3----|3---3---3---3---3---3---3---3----|
E|---------------------------------|---------------------------------|

Verse 2 :
G|---------------------------------|---------------------------------|
D|------------5--------------------|---------------------------------|
A|5--------------------------------|---------------------------------|
E|---------------------------------|---------------------------------|

G|---------------------------------|---------------------------------|
D|------------5--------------------|---------------------------------|
A|5--------------------------------|---------------------------------|
E|---------------------------------|---------------------------------|

G|---------------------------------|---------------------------------|
D|5--------------------------------|---------------------------------|
A|---------------------------------|---------------------------------|
E|---------------------------------|---------------------------------|

G|---------------------------------|---------------------------------|
D|5--------------------------------|---------------------------------|
A|---------------------------------|---------------------------------|
E|---------------------------------|---------------------------------|

Chorus :
G|---------------------------------|---------------------------------|
D|---------------------------------|---------------------------------|
A|3-------3---3---3---3---3---2----|3---3---3---3---3---3---3---3----|
E|---------------------------------|---------------------------------|

G|---------------------------------|---------------------------------|
D|5---5---5---5---5---5---5---5----|5---5---5---5---5---5---5---5----|
A|---------------------------------|---------------------------------|
E|---------------------------------|---------------------------------|

G|---------------------------------|---------------------------------|
D|---------------------------------|---------------------------------|
A|3---3---3---3---3---3---3---3----|3---3---3---3---3---3---3---3----|
E|---------------------------------|---------------------------------|

Verse 3 :
G|---------------------------------|---------------------------------|
D|------------5--------------------|---------------------------------|
A|5--------------------------------|---------------------------------|
E|---------------------------------|---------------------------------|

G|---------------------------------|---------------------------------|
D|------------5--------------------|---------------------------------|
A|5--------------------------------|---------------------------------|
E|---------------------------------|---------------------------------|

Solo : 
G|---------------------------------|---------------------------------|
D|5--------------------------------|---------------------------------|
A|---------------------------------|---------------------------------|
E|---------------------------------|---------------------------------|

G|---------------------------------|---------------------------------|
D|5--------------------------------|---------------------------------|
A|---------------------------------|---------------------------------|
E|---------------------------------|---------------------------------|

G|---------------------------------|---------------------------------|
D|---------------------------------|---------------------------------|
A|3-------3---3---3---3---3---3----|3---3---3---3---3---3---3---3----|
E|---------------------------------|---------------------------------|

G|---------------------------------|---------------------------------|
D|5-------5---5---5---5---5---5----|5---5---5---5---5---5---5---5----|
A|---------------------------------|---------------------------------|
E|---------------------------------|---------------------------------|

G|---------------------------------|---------------------------------|
D|---------------------------------|---------------------------------|
A|5---5---5---5---5---5---5---5----|5---5---5---5---5---5---5---5----|
E|---------------------------------|---------------------------------|

G|---------------------------------|---------------------------------|
D|5---5---5---5---5---5---5---5----|5---5---5---5---5---5---5---5----|
A|---------------------------------|---------------------------------|
E|---------------------------------|---------------------------------|

Verse 4 :
G|---------------------------------|---------------------------------|
D|5--------------------------------|---------------------------------|
A|---------------------------------|---------------------------------|
E|---------------------------------|---------------------------------|

G|---------------------------------|---------------------------------|
D|5--------------------------------|---------------------------------|
A|---------------------------------|---------------------------------|
E|---------------------------------|---------------------------------|

Chorus :
G|---------------------------------|---------------------------------|
D|---------------------------------|---------------------------------|
A|3---3---3---3---3---3---3---3----|3---3---3---3---3---3---3---3----|
E|---------------------------------|---------------------------------|

G|---------------------------------|---------------------------------|
D|5---5---5---5---5---5---5---5----|5---5---5---5---5---5---5---5----|
A|---------------------------------|---------------------------------|
E|---------------------------------|---------------------------------|

G|---------------------------------|---------------------------------|
D|---------------------------------|---------------------------------|
A|3---3---3---3---3---3---3---3----|3---3---3---3---3---3---3---3----|
E|---------------------------------|---------------------------------|

G|---------------------------------|---------------------------------|
D|---------------------------------|---------------------------------|
A|/5-------------------------------|---------------------------------|
E|------------3--------------------|---------------------------------|

G|---------------------------------|---------------------------------|
D|---------------------------------|---------------------------------|
A|5--------------------------------|---------------------------------|
E|------------3--------------------|---------------------------------|

Solo :
G|---------------------------------|---------------------------------|
D|---------------------------------|---------------------------------|
A|---------------------------------|---------------------------------|
E|3-------3---3---3---3---3---3----|3---3---3---3---3---3---3---3----|

G|---------------------------------|---------------------------------|
D|---------------------------------|---------------------------------|
A|---------------------------------|----------------------------2----|
E|3---3---3---3---3---3---3---3----|3---3---3---3---3---3---3--------|

G|---------------------------------|---------------------------------|
D|---------------------------------|---------------------------------|
A|3-------3---3---3---3---3---2----|3---3---3---3---3---3---3---3----|
E|---------------------------------|---------------------------------|

G|---------------------------------|---------------------------------|
D|---------------------------------|---------------------------------|
A|---------------------------------|-------------------------------/-|
E|3---3---3---3---3---3---3---3----|3---3---3---3---3---3---3---3----|

G|---------------------------------|---------------------------------|
D|---------------------------------|---------------------------------|
A|5---5---5---5---5---5---5---5-\--|3---3---3---3---3---3---3---3----|
E|---------------------------------|---------------------------------|

G|---------------------------------|---------------------------------|
D|---------------------------------|---------------------------------|
A|---------------------------------|5---5---5---5---5---5---5---5----|
E|3-------3---3---3---3---3---3----|---------------------------------|

Chorus : (outro)
G|---------------------------------|---------------------------------|
D|---------------------------------|---------------------------------|
A|---------------------------------|---------------------------------|
E|3---3---3---3---3---3---3---3----|3---3---3---3---3---3---3---3----|

G|---------------------------------|---------------------------------|
D|---------------------------------|---------------------------------|
A|---------------------------------|---------------------------------|
E|3---3---3---3---3---3---3---3----|3---3---3---3---3---3---3---3----|

G|---------------------------------|---------------------------------|
D|---------------------------------|---------------------------------|
A|3-------3---3---3---3---3---2----|3---3---3---3---3---3---3---3----|
E|---------------------------------|---------------------------------|

G|---------------------------------|---------------------------------|
D|---------------------------------|---------------------------------|
A|---------------------------------|---------------------------------|
E|3---3---3---3---3---3---3---3----|3---3---3---3---3---3---3---3----|

G|---------------------------------|---------------------------------|
D|---------------------------------|---------------------------------|
A|5---5---5---5---5---5---5---5----|3---3---3---3---3---3---3---3----|
E|---------------------------------|---------------------------------|

G|---------------------------------|---------------------------------|
D|---------------------------------|---------------------------------|
A|---------------------------------|5---5---5---5---5---5---5---5----|
E|3-------3---3---3---3---3---3----|---------------------------------|

G|---------------------------------|---------------------------------|
D|---------------------------------|---------------------------------|
A|---------------------------------|---------------------------------|
E|3---3---3---3---3---3---3---3----|3---3---3---3---3---3---3---3----|

G|---------------------------------|---------------------------------|
D|---------------------------------|---------------------------------|
A|---------------------------------|--------0-------1-------2--------|
E|3---3---3---3---3---3---3---3----|3--------------------------------|

G|---------------------------------|---------------------------------|
D|---------------------------------|---------------------------------|
A|3-------3---3---3---3---3---3----|3---3---3---3---3---3---3---3----|
E|---------------------------------|---------------------------------|

G|---------------------------------|---------------------------------|
D|---------------------------------|---------------------------------|
A|---------------------------------|---------------------------------|
E|3---3---3---3---3---3---3---3----|3---3---3---3---3---3---3---3----|

G|---------------------------------|---------------------------------|
D|---------------------------------|---------------------------------|
A|5---5---5---5---5---5---5---5----|3---3---3---3---3---3---3---3----|
E|---------------------------------|---------------------------------|

G|---------------------------------|---------------------------------|
D|5---5---5---5---5---5---5---5----|---------------------------------|
A|---------------------------------|---------------------------------|
E|---------------------------------|3-------4---3--------------------|

End on :
G|---------------------------------|---------------------------------|
D|---------------------------------|---------------------------------|
A|---------------------------------|---------------------------------|
E|3--------------------------------|---------------------------------|



************************************

| /  Slide up

************************************

            
            
Suggest correction
Creating personal tab
Creating personal tab
You can edit any tab online and save it as your Personal.

You can edit, replace or remove any tab part or add personal notes – all changes will be seen only by you.

Personal tabs can be accessed anytime from any device, even offline.
Learn more »
Give kudos to tab author, rate the tab!
1 2 3 4 5
comments
print report bad tab
guest
You may want to rate the tab now too:
select rating
Wanna post a correction for this tab? Suggest correction