Oops, an error
Loading. Please wait.

Keep Under Cover bass

40 views 3 this week
no commentswrite comment
1 2 3 4 5
3 more votes to show rating
add to favorites
×
Save as Personal and add changes to this tab that will be seen only by you. Learn more ›
×
You can save this tab as Personal to edit and correct it or add notes. All changes will be seen only by you. Learn more »
launch autoscroll
font size
0
reset
guitar tuner
edit
Autoscroll
slow
fast
+/-
esc
set tempo
stop
Author
Difficulty
Bass starts at 00:36 after strings

G|---------------------------------|---------------------------------|
D|---------------------------------|---------------------------------|
A|---------------------------------|---------------------------------|
E|---------------------------------|------------------------12--\----|

Chorus :
G|---------------------------------|---------------------------------|
D|---------------------------------|---------------------------------|
A|7-------7---7---7-------7---7----|6-------6---6---6-------6---6----|
E|---------------------------------|---------------------------------|

G|----7-------7-------7---7--------|---------------------------------|
D|---------------------------------|---------------------------------|
A|5-------5-------------------5----|3-------3---3---3---3---3---3----|
E|---------------------------------|---------------------------------|

G|---------------------------------|---------------------------------|
D|---------------------------------|---------------------------------|
A|3---3-/-7-------3-------3--------|2-------2---2---2---3---4---5----|
E|---------------------------------|---------------------------------|

G|---------------------------------|---------------------------------|
D|----------------4-------5--------|---------------------------------|
A|5-------7------------------------|0-------2-------3---0---5---7----|
E|---------------------------------|---------------------------------|

G|---------------------------------|---------------------------------|
D|----------------4-------5--------|7--------------------------------|
A|5-------7------------------------|--------2-------3-------6--------|
E|---------------------------------|---------------------------------|

G|---------------------------------|---------------------------------|
D|---------------------------------|---------------------------------|
A|7--------------------------------|---------------------------------|
E|---------------------------------|------------------------12--\----|

G|----9---9-------9---9------------|----8---8-------8---8------------|
D|---------------------------------|---------------------------------|
A|7-----------7-----------7---7----|6-----------6---------------6----|
E|---------------------------------|---------------------------------|

G|----7-------7-/-9----------------|---------------------------------|
D|---------------------------------|---------------------------------|
A|5-------5---------------5---4----|3-------3---3---3-------3---3----|
E|---------------------------------|---------------------------------|

G|---------------------------------|---------------------------------|
D|---------------------------------|5---5-5--------------------------|
A|3--------------------------------|---------------------------------|
E|--------5---4---3----------------|---------------------------------|

G|---------------------------------|---------------------------------|
D|----------------4-------5--------|7-----------------------2--------|
A|5-------7------------------------|--------2-------3----------------|
E|---------------------------------|---------------------------------|

G|---------------------------------|---------------------------------|
D|----------------4-------5--------|7--------------------------------|
A|5-------7------------------------|--------2-------3-------6--------|
E|---------------------------------|---------------------------------|

G|---------------------------------|---------------------------------|
D|---------------------------------|---------------------------------|
A|7--------------------------------|---------------------------------|
E|---------------------------------|---------------------------------|

G|---------------------------------|------------8---6----------------|
D|---------------------------------|--------------------8---6--------|
A|7-----------7---7-----------7----|----------------------------5----|
E|---------------------------------|5--------------------------------|

G|---------------------------------|------------8---6----------------|
D|---------------------------------|----7---------------8---6--------|
A|7-----------7---7-----------0----|0-------0-------------------0----|
E|---------------------------------|---------------------------------|

G|---------------------------------|---------------------------------|
D|----------------4----------------|5--------------------------------|
A|5-------7------------------------|--------7-------5-------3--------|
E|---------------------------------|---------------------------------|

G|---------------------------------|---------------------------------|
D|---------------------------------|---------------------------------|
A|2-------4-------6-------2--------|2-------4-------6-----------5----|
E|---------------------------------|------------------------7--------|

G|---------------------------------|---------------------------------|
D|---------------------------------|--------7-----------7------------|
A|7-----------5---7-----------7----|0---0-------0---0-----------5----|
E|---------------------------------|---------------------------------|

G|---------------------------------|---------------------------------|
D|---------------------------------|----7----------------------------|
A|7-----------5---7----------------|---------------------------------|
E|-------------------------------3h|5-------5---5-------5---6--------|

Interlude : (tempo change)
G|---------------------------------|---------------------------------|
D|---------------------------------|---------------------------------|
A|3--------------------------------|--------------/-12------\--------|
E|---------------------------------|---------------------------------|

G|---------------------------------|9-----------------------\--------|
D|---------------------------------|---------------------------------|
A|2-------------------3---5---9----|---------------------------------|
E|---------------------------------|---------------------------------|

G|---------------------------------|---------------------------------|
D|7---7-------5---7---7------------|7---7-------5---7---7------------|
A|---------------------------------|---------------------------------|
E|---------------------------------|---------------------------------|

G|---------------------------------|---------------------------------|
D|9---9-------7---9---9------------|---------------------------------|
A|---------------------------------|2---2---2---2---2---0---2--------|
E|---------------------------------|---------------------------------|

G|---------------------------------|---------------------------------|
D|---------------------------------|---------------------------------|
A|---------------------------------|---------------------------------|
E|0--------------------------------|-------------------------12-\----|

Chorus :
G|---------------------------------|---------------------------------|
D|---------------------------------|---------------------------------|
A|7-------7---7---7-----------7----|6-------7---6---6-----------0----|
E|---------------------------------|---------------------------------|

G|----7-------7---7---7------------|---------------------------------|
D|---------------------------------|---------------------------------|
A|5--------------------------------|3--------------------------------|
E|---------------------------------|------------5---3---5------------|

G|---------------------------------|---------------------------------|
D|---------------------------------|---------------------------------|
A|3---3---3-------3---3---3---5----|------------------------3---4----|
E|---------------------------------|7-------7---7---7---6------------|

G|---------------------------------|---------------------------------|
D|----------------4-------5--------|7-----------------------1---2----|
A|5-------7------------------------|--------2-------3----------------|
E|---------------------------------|---------------------------------|

G|---------------------------------|---------------------------------|
D|----------------4-------5--------|7--------------------------------|
A|5-------7------------------------|--------2-------3-------6--------|
E|---------------------------------|---------------------------------|

G|---------------------------------|---------------------------------|
D|---------------------------------|---------------------------------|
A|7--------------------------------|----------------------------5----|
E|---------------------------------|---------------------------------|

G|---------------------------------|---------------------------------|
D|---------------------------------|---------------------------------|
A|7-----------7---7-----------7----|----------------5-------5---5----|
E|---------------------------------|5-------5---5--------------------|

G|---------------------------------|---------------------------------|
D|---------------------------------|---------------------------------|
A|7---7---5---5---4---4---2---2----|0-----------0---0-----------0----|
E|---------------------------------|---------------------------------|

G|---------------------------------|---------------------------------|
D|----------------4-------4--------|5---5----------------------------|
A|5-------7------------------------|--------7---7---5---5---3---3----|
E|---------------------------------|---------------------------------|

G|---------------------------------|---------------------------------|
D|---------------------------------|---------------------------------|
A|2---2---4---4---6---6---7---7----|--------4---4---6---6-------5----|
E|---------------------------------|7---7----------------------------|

G|---------------------------------|---------------------------------|
D|---------------------------------|7---7---5---5---4---4------------|
A|7---7---5---5---4---4------------|----------------------------5----|
E|------------------------7---7----|---------------------------------|

G|---------------------------------|---------------------------------|
D|---------------------------------|---------------------------------|
A|7---7---5---5---4---4------------|--------4---4---5---5-------5----|
E|------------------------7---7----|5---5----------------------------|

G|---------------------------------|---------------------------------|
D|---------------------------------|---------------------------------|
A|7---7---5---5---4---4------------|---------------------------------|
E|------------------------7---7----|5---5---3---3---2---2---0---0----|

G|---------------------------------|---------------------------------|
D|---------------------------------|---------------------------------|
A|7---7---5---5---4---4------------|--------4---4---5---5---6---6----|
E|------------------------7---7----|5---5----------------------------|

G|---------------------------------|---------------------------------|
D|---------------------------------|7---7----------------------------|
A|7---7---5---5---4---4------------|--------4---4---5---5---6---6----|
E|------------------------7---7----|---------------------------------|

G|---------------------------------|---------------------------------|
D|---------------------------------|---------------------------------|
A|7---7---5---5---4---4------------|---------------------------------|
E|------------------------7---7----|5---5---3---3---2---2---/--------|

G|---------------------------------|---------------------------------|
D|---------------------------------|---------------------------------|
A|7--------------------------------|---------------------------------|
E|---------------------------------|---------------------------------|

G|---------------------------------|---------------------------------|
D|---------------------------------|---------------------------------|
A|7--------------------------------|---------------------------------|
E|---------------------------------|---------------------------------|

            
            
Suggest correction
Creating personal tab
Creating personal tab
You can edit any tab online and save it as your Personal.

You can edit, replace or remove any tab part or add personal notes – all changes will be seen only by you.

Personal tabs can be accessed anytime from any device, even offline.
Learn more »
Give kudos to tab author, rate the tab!
1 2 3 4 5
comments
print report bad tab
guest
You may want to rate the tab now too:
select rating
Wanna post a correction for this tab? Suggest correction