Oops, an error
Loading. Please wait.

Lawdy Miss Clawdy bass

61 views 1 this week
no commentswrite comment
1 2 3 4 5
3 more votes to show rating
add to favorites
×
Save as Personal and add changes to this tab that will be seen only by you. Learn more ›
×
You can save this tab as Personal to edit and correct it or add notes. All changes will be seen only by you. Learn more »
launch autoscroll
font size
0
reset
guitar tuner
edit
Autoscroll
slow
fast
+/-
esc
set tempo
stop
Author
Difficulty
[Intro]
G|---------------------------------|---------------------------------|
D|---------------------------------|---------------------------------|
A|---------------------------------|---------------------------------|
E|---------------------------------|---------------------------------|

G|---------------------------------|---------------------------------|
D|---------------------------------|---------------------------------|
A|---------------------------------|7-----7-5-----5-4-----4----------|
E|---------------------------------|------------------------7------7-|

[Chorus]
G|---------------------------------|---------------------------------|
D|------------------------4--------|7-------4------------------------|
A|--------4-------7----------------|----------------7-------4------0-|
E|5--------------------------------|---------------------------------|

G|---------------------------------|---------------------------------|
D|---------------------------------|---------------------------------|
A|5---\-----------0-------2--------|5-----------------------2--------|
E|--------2------------------------|--------2-------5----------------|

G|---------------------------------|---------------------------------|
D|---------------------------------|---------------------------------|
A|--------4-------7----------------|----------------2-------4---7----|
E|5-----------------------2--------|0-------4------------------------|

G|---------------------------------|---------------------------------|
D|---------------------------------|---------------------------------|
A|--------4-------7-------4------4-|7-----7-5-----5-4-----4----------|
E|5--------------------------------|------------------------7------7-|

[Verse]
G|---------------------------------|---------------------------------|
D|------------------------4--------|7-------4------------------------|
A|--------4-------7----------------|----------------7-------4--------|
E|5--------------------------------|---------------------------------|

G|---------------------------------|---------------------------------|
D|---------------------------------|---------------------------------|
A|5---\---2-------0----------------|5--------------------------------|
E|------------------------2--------|--------2-------3-------4--------|

G|---------------------------------|---------------------------------|
D|------------------------4--------|---------------------------------|
A|--------4-------7--------------4-|7-------5-----5-4----------------|
E|5--------------------------------|------------------------7--------|

G|---------------------------------|---------------------------------|
D|---------------------------------|---------------------------------|
A|--------4-------5-------6--------|7-----7-5-----5-4-----4----------|
E|5--------------------------------|------------------------7------7-|

[Chorus]
G|---------------------------------|---------------------------------|
D|------------------------4--------|7-------4------------------------|
A|--------4-------7----------------|----------------7-------4--------|
E|5--------------------------------|---------------------------------|

G|---------------------------------|---------------------------------|
D|---------------------------------|---------------------------------|
A|5---\---2-------0----------------|5--------------------------------|
E|------------------------2--------|--------2-------3-------4--------|

G|---------------------------------|---------------------------------|
D|---------------------------------|---------------------------------|
A|--------4-------5-------6--------|7-------5-------4----------------|
E|5--------------------------------|------------------------7--------|

G|---------------------------------|---------------------------------|
D|---------------------------------|---------------------------------|
A|--------4-------5-------6--------|7-----7-7-----7-7-----7-7------7-|
E|5--------------------------------|---------------------------------|

[Interlude]
G|---------------------------------|---------------------------------|
D|---------------------------------|---------------------------------|
A|------------------------------4--|5-------5-------5---\------------|
E|5-------5-------5-------5--7-----|------------------------2---/----|

G|---------------------------------|---------------------------------|
D|---------------------------------|---------------------------------|
A|---------------------------------|7-----7-5-----5-4-----4----------|
E|5-------5-------5-------3---\----|------------------------7------7-|

[Solo]
G|---------------------------------|---------------------------------|
D|------------------------4------4-|7-------4------------------------|
A|--------4-------7----------------|----------------7-------4------0-|
E|5--------------------------------|---------------------------------|

G|---------------------------------|---------------------------------|
D|---------------------------------|---------------------------------|
A|5---\---2-------0----------------|5--------------------------------|
E|------------------------2--------|--------2-------5-------2--------|

G|---------------------------------|---------------------------------|
D|---------------------------------|---------------------------------|
A|--------4-------7-------4------4-|----------------2----------------|
E|5--------------------------------|0-------4---------------4--------|

G|---------------------------------|---------------------------------|
D|---------------------------------|---------------------------------|
A|--------4-------5-------6--------|7--------------------------------|
E|5--------------------------------|------0-0-----0-0-----0-0------0-|

G|---------------------------------|---------------------------------|
D|------------------------4------4-|7--------------------------------|
A|--------4-------7----------------|--------4-------7-------6--------|
E|5--------------------------------|---------------------------------|

G|---------------------------------|---------------------------------|
D|---------------------------------|---------------------------------|
A|5---\---2-------0----------------|5--------------------------------|
E|------------------------2--------|--------2-------3-------4--------|

G|---------------------------------|---------------------------------|
D|---------------------------------|---------------------------------|
A|--------4-------7-------4--------|7-------5-------4----------------|
E|5--------------------------------|------------------------7--------|

G|---------------------------------|---------------------------------|
D|---------------------------------|---------------------------------|
A|--------4-------7-------4--------|7-----7-7-----7-7-----7-7------7-|
E|5--------------------------------|---------------------------------|

[Verse]
G|---------------------------------|---------------------------------|
D|---------------------------------|---------------------------------|
A|--------4-------7-------4---7----|--------4-------7-------4--------|
E|5--------------------------------|5--------------------------------|

G|---------------------------------|---------------------------------|
D|---------------------------------|---------------------------------|
A|5--------------------------------|5--------------------------------|
E|--------2-------5-------2--------|--------2-------3-------4--------|

G|---------------------------------|---------------------------------|
D|---------------------------------|---------------------------------|
A|--------4-------5-------6--------|7-------5-----5-4----------------|
E|5--------------------------------|------------------------7--------|

G|---------------------------------|---------------------------------|
D|---------------------------------|---------------------------------|
A|--------4-------5-------6--------|7--------------------------------|
E|5--------------------------------|------0-0-----0-0-----0-0------0-|

G|---------------------------------|---------------------------------|
D|---------------------------------|---------------------------------|
A|--------4-------7-------4---7----|--------4-------7-------4--------|
E|5--------------------------------|5--------------------------------|

G|---------------------------------|---------------------------------|
D|---------------------------------|---------------------------------|
A|5--------------------------------|5--------------------------------|
E|--------2-------5-------2--------|--------2-------3-------4--------|

G|---------------------------------|---------------------------------|
D|---------------------------------|---------------------------------|
A|--------4-------5-------6--------|7--------------------------------|
E|5--------------------------------|--------0-------0-------0--------|

G|---------------------------------|---------------------------------|
D|---------------------------------|---------------------------------|
A|--------4-------5-------6--------|7--------------------------------|
E|5--------------------------------|------0-0-----0-0-----0-0------0-|

[Interlude]
G|---------------------------------|---------------------------------|
D|---------------------------------|---------------------------------|
A|---------------------------------|5-------5-------5-------5--------|
E|5-------5-------5-------5--------|---------------------------------|

G|---------------------------------|---------------------------------|
D|---------------------------------|---------------------------------|
A|---------------------------------|7-----7-5-----5-4-----4----------|
E|5-------5-------5-------5--------|------------------------7------7-|

[Solo]
G|---------------------------------|---------------------------------|
D|---------------------------------|---------------------------------|
A|--------4-------7-------4---7----|--------4-------7-------4------0-|
E|5--------------------------------|5--------------------------------|

G|---------------------------------|---------------------------------|
D|---------------------------------|---------------------------------|
A|5--------------------------------|5--------------------------------|
E|--------2-------5-------2--------|--------2-------3-------4--------|

G|---------------------------------|---------------------------------|
D|---------------------------------|---------------------------------|
A|--------4-------5-------6--------|7---7---7---7---7---7---7---7----|
E|5--------------------------------|---------------------------------|

[Outro]
G|---------------------------------|---------------------------------|
D|------------------------4--------|7-------5-------4----------------|
A|--------4-------7----------------|------------------------7--------|
E|5--------------------------------|---------------------------------|

G|---------------------------------|---------------------------------|
D|---------------------------------|---------------------------------|
A|5--------------------------------|5--------------------------------|
E|--------2-------5-------2--------|--------2-------3-------4--------|

G|---------------------------------|---------------------------------|
D|---------------------------------|---------------------------------|
A|--------4-------5-------6--------|7--------------------------------|
E|5--------------------------------|------0-0-----0-0-----0-0--------|

G|---------------------------------|---------------------------------|
D|---------------------------------|---------------------------------|
A|--------4-----4-5-----5-6--------|7-----5-4------------------------|
E|5-----5--------------------------|----------------5----------------|

***********************************
/ = slide up
\ = slide down
***********************************

            
            
Suggest correction
Creating personal tab
Creating personal tab
You can edit any tab online and save it as your Personal.

You can edit, replace or remove any tab part or add personal notes – all changes will be seen only by you.

Personal tabs can be accessed anytime from any device, even offline.
Learn more »
Give kudos to tab author, rate the tab!
1 2 3 4 5
comments
print report bad tab
guest
You may want to rate the tab now too:
select rating
Wanna post a correction for this tab? Suggest correction