Oops, an error
Loading. Please wait.

Let Me Roll It Bass Tab

version 1
version 1

Whole song

Interactive

10,472 views 39 this week
no commentswrite comment
1 2 3 4 5
accurate
x 5
add to favorites
launch autoscroll
font size
0
reset
guitar tuner
Tab Pro tools
  • play this tab
  • loop segment
  • change instrument
  • show fretboard
  • metronome
×
Best way to learn
"Let Me Roll It"
Autoscroll
slow
fast
+/-
esc
set tempo
stop
Contributor
++++++++++++++++++++++++++++++++++
| Paul McCartney- Let Me Roll It |
++++++++++++++++++++++++++++++++++



"I cant tell you how I feel..."

Tuning: EADG


Intro
1.
G|-----------------------------------------------------------------------------------|
D|---------2-4~-------------2-4~--4h6p4-2--------------------2---------------------2-|
A|-0~----4---------0~---2/4------------------------0~----2/4-------------0~----2/4---|
E|----------------------------------------0~-----4-------------0~----2/4-------------|

2.
G|---------------------------------------------|
D|---------------------2---------------------2-|
A|-----------0~----2/4-------------0~----2/4---|
E|-0~----2/4-------------0~----2/4-------------|

3.
G|-----------------------------------------------------------------|
D|-----------------------------------------------------------------|
A|-----------------------------------------------------------------|
E|-000000-0x-----0-2~------2~------0~------0~------2~------2~------|

Verse
"You gave me something..."
4.
G|------------------------------------------------------------------|
D|------------------------------------------------------------------|
A|------------------------------------------------------------------|
E|-0~------0~------2~------2~------0~------0~------2~------2~--/4---|

Pre-Chorus
"I cant tell you how I feel..."
5.
G|-----------------------------------------------------|
D|------------2-2h4-4-4-4\-------------2-2h4-4-6-4-4-2-|
A|-0-0-0---------------------0-0-0-0-------------------|
E|-------5\--------------------------------------------|

Chorus
"Let me roll it..."
6.
G|-----------------------------------------------------------------------------------|
D|---------------2-4--------------------2--------------------2--------------------2--|
A|-------2-0~--4--------------0~--2h4~-------------0~--2h4~-------------0~--2h4~-----|
E|-0~--4-------------0~---2/4-------------0~---2/4-------------0~---2/4--------------|

Outro
7.
G|-----------------------------------------------------------------|
D|-----------------------------------------------------------------|
A|-----------------------------------------------------------------|
E|-000000-0x-----0-2~------2~------0~------0~------2~-----2~-------|

Verse
"I want to tell you..."
8.
G|------------------------------------------------------------------|
D|------------------------------------------------------------------|
A|------------------------------------------------------------------|
E|-0~------0~------2~------2~------0~------0~------2~------2~--/4---|

Pre-Chorus
"I cant tell you how I feel..."
9.
G|-----------------------------------------------------|
D|------------2-2h4-4-4-4\-------------2-2h4-4-6-4-4-2-|
A|-0-0-0---------------------0-0-0-0-------------------|
E|-------5\--------------------------------------------|

Chorus
"Let me roll it..."
10.
G|-----------------------------------------------------------------------------------|
D|---------------2-4--------------------2--------------------2--------------------2--|
A|-------2-0~--4--------------0~--2h4~-------------0~--2h4~-------------0~--2h4~-----|
E|-0~--4-------------0~---2/4-------------0~---2/4-------------0~---2/4--------------|

Outro
11.
G|-----------------------------------------------------------------|
D|---------------2-4~----------------------------------------------|
A|-----------------------------------------------------------------|
E|-000000-0x---------------2~------0~------0~------2~------2~------|

Bridge
12.
G|-----------------------------------------------------------------|
D|-----------------------------------------------------------------|
A|-----------------------------------------------------------------|
E|-0~------0~------2~------2~------0~------0~------2~------2~------|

Pre-Chorus
"I cant tell you how I feel..."
13.
G|-----------------------------------------------------|
D|------------2-2h4-4-4-4\-------------2-2h4-4-6-4-4-2-|
A|-0-0-0---------------------0-0-0-0-------------------|
E|-------5\--------------------------------------------|

Chorus
"Let me roll it..."
14.
G|---------------------------------------------------------------------------------------|
D|---------------------2---------------------2--------------------2--------------------2-|
A|-----------0~--2h4~--------------0~--2h4~--------------0~--2h4~------------2-0~--2h4~--|
E|-0~--0~-2/4------------0~--0~-2/4------------0~--0~-2/4-----------0~--0~-4-------------|

Outro
15.
G|-----------------------------------------------------------------|
D|-----------------------------------------------------------------|
A|-----------------------------------------------------------------|
E|-000000-0x-----0-2~------2~------0~------0~------2~------2~------|

Verse
"You gave me something..."
16.
G|------------------------------------------------------------------|
D|------------------------------------------------------------------|
A|------------------------------------------------------------------|
E|-0~------0~------2~------2~------0~------0~------2~------2~--/4---|

Pre-Chorus
"I cant tell you how I feel..."
17.
G|-----------------------------------------------------|
D|------------2-2h4-4-4-4\-------------2-2h4-4-6-4-4-2-|
A|-0-0-0---------------------0-0-0-0-------------------|
E|-------5\--------------------------------------------|

Chorus
"Let me roll it..."
18.
G|-----------------------------------------------------------------------------------|
D|---------------2-4--------------------2--------------------2-------------------2-4-|
A|-------2-0~--4--------------0~--2h4~-------------0~--2h4~-------------0~--2h4~-----|
E|-0~--4-------------0~---2/4-------------0~---2/4-------------0~---2/4--------------|

Outro
19.
G|--------------------------------------------------------------------------|
D|---------------2-4~-2-4~--------------------------------------------------|
A|--------------------------------------------------------------------------|--until fades out...
E|-000000-0x--------------------2-2/4~------0~------0~------2~------2~------|

Verse
"You gave me something..."
16.
G|------------------------------------------------------------------|
D|------------------------------------------------------------------|
A|------------------------------------------------------------------|
E|-0~------0~------2~------2~------0~------0~------2~------2~--/4---|


Please rate thanks!!


Lyrics:

You gave me something
I understand,
You gave me loving in the palm of my hand
I can't tell you how I feel
My heart is like a wheel

Let me roll it
Let me roll it to you

I want to tell you
And now's the time
I want to tell you that
You're going to be mine



+++++++++++
| Raileff |
+++++++++++
comments
print report bad tab
I want to post or [tab]
guest
You may want to rate the tab now too:
select rating
Please do not post tabs as comments. Select "correction" instead!