Oops, an error
Loading. Please wait.

Letting Go Bass Tab

73 views 6 this week
no commentswrite comment
1 2 3 4 5
3 more votes to show rating
add to favorites
launch autoscroll
font size
0
reset
guitar tuner
Autoscroll
slow
fast
+/-
esc
set tempo
stop
Help us to improve Ultimate-Guitar.com Take our survey!
×
[Intro]
G|---------------------------------|---------------------------------|
D|---------------------------------|---------------------------------|
A|---------------------------------|---------------------------------|
E|---------------------------------|---------------------------------|

G|---------------------------------|---------------------------------|
D|---------------------------------|---------------------------------|
A|---------------------------------|------------------------17---\---|
E|---------------------------------|---------------------------------|

G|---------------------------------|---------------------------------|
D|---------------------------------|---------------------------------|
A|---------------------------------|---------------------------------|
E|5-------5---3---5-------5---3----|5-------5---3---5-/-10--8---7----|

G|---------------------------------|---------------------------------|
D|---------------------------------|---------------------------------|
A|---------------------------------|--------------------5---3---2----|
E|5-------5---3---5-------5---3----|5-------5---3---5----------------|

G|---------------------------------|---------------------------------|
D|---------------------------------|---------------------------------|
A|---------------------------------|------------------------5---3----|
E|5---5---5---3---5-------5---3----|5-------5---3---5----------------|

G|---------------------------------|---------------------------------|
D|---------------------------------|---------------------------------|
A|---------------------------------|------------------------5---3----|
E|5---5---5---3---5-------5---3----|5-------5---3---5----------------|

G|---------------------------------|---------------------------------|
D|---------------------------------|---------------------------------|
A|---------------------------------|---------------------------------|
E|5-------5---3---5-------5---3----|5-------5---3---5-------5---3----|

G|---------------------------------|---------------------------------|
D|---------------------------------|---------------------------------|
A|---------------------------------|---------------------------------|
E|5-------5---3---5-------5---3----|5-------5---3---5-------5---3----|

[Verse 1]
G|---------------------------------|---------------------------------|
D|---------------------------------|---------------------------------|
A|---------------------------------|------------------/-4---3---0----|
E|5-------5---3-------5---5---5----|5-----------3--------------------|

G|---------------------------------|---------------------------------|
D|---------------------------------|------------------------7--------|
A|5-------5-------5-------5------0-|5-------5-------5-/-7-------7----|
E|---------------------------------|---------------------------------|

G|---------------------------------|---------------------------------|
D|7---7----------------------------|---------------------------------|
A|---------------------------------|----------------5---3---0---3----|
E|------------3---5-------5---3----|5-------5---3--------------------|

G|---------------------------------|---------------------------------|
D|---------------------------------|---------------------------------|
A|5---5---5-------5-------5--------|5-------5-------5-------5--------|
E|---------------------------------|---------------------------------|

[Chorus]
G|---------------------------------|---------------------------------|
D|---------------------------------|---------------------------------|
A|5-----------5---5-----------5----|5-------5-------5-------5-/-7----|
E|---------------------------------|---------------------------------|

G|---------------------------------|---------------------------------|
D|---------------------------------|---------------------------------|
A|---------------------------------|----------------------------4----|
E|5-------5---3---5-------5---3----|5-------5---3---5---3---5--------|

G|---------------------------------|---------------------------------|
D|---------------------------------|---------------------------------|
A|5-------5-------5-----------5----|5---5-----------5-------5-/-7----|
E|---------------------------------|---------------------------------|

G|---------------------------------|---------------------------------|
D|---------------------------------|------------------------17---\---|
A|----------------------------5----|---------------------------------|
E|5-------5---3---5---5------------|---------------------------------|

[Verse 2]
G|---------------------------------|---------------------------------|
D|---------------------------------|---------------------------------|
A|---------------------------------|---------------------------------|
E|5-------5---3---5-------5---3----|5-------5---3---5-------5---3----|

G|---------------------------------|---------------------------------|
D|---------------------------------|---------------------------------|
A|---------------------------------|--------------------5---3---2----|
E|5-------5---3---5-------5---3----|5-------5---3---5----------------|

G|---------------------------------|---------------------------------|
D|---------------------------------|---------------------------------|
A|---------------------------------|------------------------5--------|
E|5---5---5---3---5-------5---3----|5-------5---3---5---3-------5----|

G|---------------------------------|---------------------------------|
D|---------------------------------|------------------------7--------|
A|5---5---5---5---5---5-------5----|--------5-------5-/-7-------7----|
E|---------------------------------|---------------------------------|

[Chorus]
G|---------------------------------|---------------------------------|
D|---------------------------------|---------------------------------|
A|5---5---5-------5-------5--------|5-------5---3---5-/-7---5-/-7----|
E|---------------------------------|---------------------------------|

G|---------------------------------|---------------------------------|
D|---------------------------------|---------------------------------|
A|---------------------------------|----------------------------4----|
E|5---5---5---3---5-------5---3----|5-------5---3---5---3---5--------|

G|---------------------------------|---------------------------------|
D|---------------------------------|------------------------7--------|
A|5-------5-------5-------5--------|5-------5-------5-/-7-------7----|
E|---------------------------------|---------------------------------|

[Interlude]
G|---------------------------------|---------------------------------|
D|---------------------------------|---------------------------------| (*)
A|-------------------(3)-----------|----3-------5---------------3----| optionnal
E|-------(0)-(3)-(5)-----(5)-(3)---|5--------------------------------| (for fun)

G|---------------------------------|---------------------------------|
D|---------------------------------|---------------------------------|
A|5-------5---3---5-------5---3----|5---/---7------------------------|
E|---------------------------------|------------5-------5---3---3----|

G|--------------------5------------|---------------------------------|
D|------------5---7-------7---5----|---------------------------------|
A|--------7------------------------|----3-------5-------5---3--------| 
E|5--------------------------------|5--------------------------------| 

G|---------------------------------|---------------------------------|
D|---------------------------------|---------------------------------|
A|5-------5---3---5-------5---3----|5-------7------------------------|
E|---------------------------------|------------5-------5---3---5----|

G|---------------------------------|--------14-\------|
D|---------------------------------|------------------| (4 instead of 8)
A|----3-------5--------------------|------------------|
E|---------------------------------|------------------|

G|---------------------------------|---------------------------------|
D|---------------------------------|---------------------------------|
A|---------------------------------|----------------------------5/7--|
E|5-------5---3---5---5---3---5----|----5---5---3---5---3---5--------|

G|---------------------------------|---------------------------------|
D|---------------------------------|------------------------7--------|
A|5-------5---3---5-------5---3----|5-------5---3-/-7----------------|
E|---------------------------------|---------------------------------|

G|---------------------------------|---------------------------------|
D|----7---7---5---7-------7---5----|7-------7---5-/-10--7------------|
A|---------------------------------|----------------------------5----|
E|---------------------------------|------------------------8--------|

G|---------------------------------|---------------------------------|
D|---------------------------------|---------------------------------|
A|5-----------5---5---5------------|---------------------------------|
E|------------------------0---0----|3---3---3---/---10--8---7---5----|

[Chorus]
G|---------------------------------|---------------------------------|
D|---------------------------------|---------------------------------|
A|5-------5-------5----------------|5-------5------------------------|
E|--------------------0---3---5----|----------------0---0---3---5----|

G|---------------------------------|---------------------------------|
D|---------------------------------|---------------------------------|
A|---------------------------------|---------------------------------|
E|5-------5---3---5-------5---3----|5-------5---3--5/10-8---7---7----|

G|---------------------------------|---------------------------------|
D|---------------------------------|---------------------------------|
A|5-------5-------5-------5--------|----3---5------5--------3---2----|
E|---------------------------------|---------------------------------|

G|---------------------------------|---------------------------------|
D|---------------------------------|---------------------------------|
A|---------------------------------|----------------------------2----|
E|5-------5---3---5---3-------5----|----5---5---3---5---3---5--------|

[Verse 3]
G|---------------------------------|5---5----------------------------|
D|---------------------------------|----------------------------1----|
A|3-------3---1---3-------3---1----|--------3-------3-------3--------|
E|---------------------------------|---------------------------------|

G|---------------------------------|---------------------------------|
D|---------------------------------|----------------3---3-------1----|
A|---------------------------------|------------------------3--------|
E|1-------1---------------1--------|1-------1------------------------|

G|------------------------5--------|--------5------------------------|
D|---------------------------------|----------------5-----------1----|
A|3-------3-------3----------------|3-----------------------3--------|
E|---------------------------------|---------------------------------|

G|---------------------------------|---------------------------------|
D|---------------------------------|---------------------------------|
A|---------------------------------|---------------------------------|
E|1---1-----------1-------1--------|----1---1---1---1-------1---1----|

[Chorus]
G|---------------------------------|---------------------------------|
D|3--------------------------------|3--------------------------------|
A|---------------------------------|---------------------------------|
E|--------1-------1-------1---1----|--------1-------1---1---1--/8----|

G|---------------------------------|---------------------------------|
D|---------------------------------|---------------------------------|
A|3-------3---1---3-------3---1----|3-------3---1---3---1------------|
E|---------------------------------|------------------------0---1----|

G|---------------------------------|---------------------------------|
D|---------------------------------|3---------------3----------------|
A|---------------------------------|---------------------------------|
E|1---------------1-------1---1----|--------1---1-------1---1--------|

G|---------------------------------|
D|---------------------------------|
A|3-------3---1---3-------5---3----|
E|---------------------------------|

[Interlude]
G|---------------------------------|---------------------------------|
D|-------------------(1)-----------|------------3-----------3--------| (*)
A|3----------(1)-(3)-----(3)-(1)---|3---6----------------------------| optionnal
E|-------(3)-----------------------|---------------------------------| (for fun)

G|---------------------------------|----------------------------5----|
D|----------------3-------3--------|----3----------------------------|
A|---------------------------------|------------3--------------------|
E|----1---1------------------------|---------------------------------|

G|------------3--(5)-(7)-(5)-(3)---|---------------------------------|
D|--------5------------------------|---------------------------------| (*)
A|3---3-----------3-------3--------|3---6-----/-8-------8---8--------| optionnal
E|---------------------------------|---------------------------------| (for fun)

G|---------------------------------|--------------------5------------|
D|---------------------------------|----5----------------------------|
A|8-----------8---8-------8--------|8-----------3-----------3--------|
E|---------------------------------|---------------------------------|

G|----------------------------5----|---------------------------------|
D|---------------------------------|----1-------3-------5---3--------|
A|3---3-----------3----------------|3--------------------------------|
E|---------------------------------|---------------------------------|

G|---------------------------------|----------------5-------5--------|
D|3--------------------------------|---------------------------------|
A|---------------------------------|--------3-------------------3----|
E|--------1---1---1-------1--------|---------------------------------|

G|------------------------3---5----|---------------------------------|
D|----------------1----------------|----1----------------------------|
A|3---3-------3--------------------|3--------------------------------|
E|---------------------------------|------------1-------1---1--------|

G|---------------------------------|---------------------------------|
D|---------------------------------|3-----------------------5---3----|
A|---------------------------------|------------3---3----------------|
E|1---1-------1---1----------------|---------------------------------|

Fade out
G|---------------------------------|---------------------------------|
D|---------------------------------|---------------------------------|
A|3-------3-------3----------------|---------------------------------|
E|---------------------------------|---------------------------------|

************************************

| \    Slide down
| /    Slide up
| (n)  Ghost note  

************************************
Suggest correction
Give kudos to tab author, rate the tab!
1 2 3 4 5
comments
print report bad tab
guest
You may want to rate the tab now too:
select rating
Wanna post a correction for this tab? Suggest correction