Oops, an error
Loading. Please wait.

Listen To What The Man Said bass

version 2
version 2

Whole song

Interactive

145 views 1 this week
no commentswrite comment
1 2 3 4 5
3 more votes to show rating
add to favorites
×
Save as Personal and add changes to this tab that will be seen only by you. Learn more ›
×
You can save this tab as Personal to edit and correct it or add notes. All changes will be seen only by you. Learn more »
launch autoscroll
font size
0
reset
guitar tuner
edit
Autoscroll
slow
fast
+/-
esc
set tempo
stop
Author
Difficulty
Intro :
G|---------------------------------|---------------------------------|
D|5---------------5----------------|5---------------5----------------|
A|--------4---5-----------4---5----|--------4---5-----------4---5----|
E|---------------------------------|---------------------------------|

G|---------------------------------|---------------------------------|
D|5---------------5----------------|5---------------5----------------|
A|--------4---5-----------4---5----|--------4---5-----------4---5----|
E|---------------------------------|---------------------------------|

G|---------------------------------|---------------------------------|
D|5---------------5----------------|5---------------5----------------|
A|--------4---5-----------4---5----|--------4---5-----------4---5----|
E|---------------------------------|---------------------------------|

G|---------------------------------|---------------------------------|
D|5---------------5----------------|5---------------5----------------|
A|--------4---5-----------4---5----|--------4---5-----------0---3----|
E|---------------------------------|--------------------3------------|

Verse 1 :
G|---------------------------------|---------------------------------|
D|---------------------------------|---------------------------------|
A|5-------5-------5-------5---4----|3-------3-------3-----3-0---3----|
E|---------------------------------|---------------------------------|

G|---------------------------------|---------------------------------|
D|------------------------4---3----|2-----------2---2----------------|
A|2-------2-----0-2---2------------|------------------------1--------|
E|---------------------------------|---------------------------------|

G|---------------------------------|---------------------------------|
D|---------------------------------|---------------------------------|
A|0-----0-7-----7-0-------7---\----|2-----2---------2-----2----------|
E|---------------------------------|--------2---------------2--------|

G|---------------------------------|---------------------------------|
D|---------------------------------|---------------------------------|
A|3-----3---------3-----3----------|3-----3---------3---2---3---5----|
E|--------3---------------3--------|--------3------------------------|

Chorus :
G|---------------------------------|---------------------------------|
D|5---------------5----------------|5---------------5----------------|
A|--------4---5-----------4---5----|--------4---5-----------4---5----|
E|---------------------------------|---------------------------------|

G|---------------------------------|---------------------------------|
D|5---------------5----------------|5---------------5----------------|
A|--------4---5-----------4---5----|--------4---5-----------0---3----|
E|---------------------------------|--------------------3------------|

Verse 2 :
G|---------------------------------|---------------------------------|
D|---------------------------------|---------------------------------|
A|5-----5---------5-----5-----5----|3-----3---------3-----3-----3----|
E|--------5---------------5--------|--------3---------------3--------|

G|---------------------------------|---------------------------------|
D|----------------------------4----|2-----------2---2----------------|
A|2---------------2-----2----------|--------------------2---2---1----|
E|--------2---------------2--------|---------------------------------|

G|---------------------------------|---------------------------------|
D|----------------------------2----|---------------------------------|
A|---------------------------------|2-----2---------2-----2----------|
E|5-----5-0-------5-----5-0--------|--------2---------------2--------|

G|---------------------------------|---------------------------------|
D|---------------------------------|---------------------------------|
A|3-----3---------3---\---3--------|3---3---3-------3---2---3---5----|
E|--------3------------------------|---------------------------------|

Chorus :
G|---------------------------------|---------------------------------|
D|5---------------5----------------|5---------------5----------------|
A|--------4---5-----------4---5----|--------4---5-----------4---5----|
E|---------------------------------|---------------------------------|

G|---------------------------------|---------------------------------|
D|5---------------5----------------|5---------------5----------------|
A|--------4---5-----------4---5----|--------4---5-----------5--------|
E|---------------------------------|---------------------------------|

Bridge :
G|---------------------------------|---------------------------------|
D|5---------------5----------------|5---------------5----------------|
A|--------5---------------5---5----|--------5---------------5---5----|
E|---------------------------------|---------------------------------|

G|---------------------------------|---------------------------------|
D|5---------------5----------------|5-----------5-/-7---5------------|
A|--------5---------------4---5----|--------5---------------7---5----|
E|---------------------------------|---------------------------------|

G|---------------------------------|---------------------------------|
D|---------------------------------|---------------------------------|
A|3---------------3----------------|3---------------3---2---3---5----|
E|--------3---3-----------3---3----|--------3---3--------------------|

G|---------------------------------|---------------------------------|
D|5---------------5----------------|5------5--------5---5------------|
A|--------4---5-----------4---5----|--------4---5-----------5---7----|
E|---------------------------------|---------------------------------|

G|---------------------------------|----4---4---4--------------------|
D|5---------------5------5---------|5---------------5----------------|
A|--------4---5-----------4---5----|--------------------7---5-/-7----|
E|---------------------------------|---------------------------------|

Chorus :
G|---------------------------------|---------------------------------|
D|5---------------5----------------|5---------------5----------------|
A|--------4---5-----------4---5----|--------4---5-----------4---5----|
E|---------------------------------|---------------------------------|

G|---------------------------------|---------------------------------|
D|5---------------5----------------|5---------------5----------------|
A|--------4---5-----------4---5----|--------4---5-------0---2---3----|
E|---------------------------------|---------------------------------|

Sax solo :
G|---------------------------------|---------------------------------|
D|---------------------------------|---------------------------------|
A|5-------5-------5---5---5---4----|3---------------3----------------|
E|---------------------------------|--------3---3-----------3---3----|

G|---------------------------------|---------------------------------|
D|---------------------------------|---------------------------------|
A|2---------------2------/9---8----|7-----------6---7----------------|
E|--------2------------------------|--------7---------------6--------|

G|---------------------------------|---------------------------------|
D|---------------------------------|---------------------------------|
A|------------7---------------7----|2---------------2----------------|
E|5-------8-------5-------8--------|--------2---2-----------2---2----|

G|---------------------------------|---------------------------------|
D|---------------------------------|---------------------------------|
A|3------3--------3------3---------|3------3--------3---2---3---5----|
E|--------3---------------3---3----|--------3---3--------------------|

Chorus :
G|---------------------------------|---------------------------------|
D|5---------------5----------------|5---------------5----------------|
A|--------4---5-----------4---5----|--------4---5-----------4---5----|
E|---------------------------------|---------------------------------|

G|---------------------------------|---------------------------------|
D|5---------------5----------------|5---------------5----------------|
A|--------4---5-----------4---5----|--------4---5-------0---2---3----|
E|---------------------------------|---------------------------------|

Bridge :
G|---------------------------------|---------------------------------|
D|---------------------------------|---------------------------------|
A|5-------5-------5---5---5---5----|5-------5-------5-------5---7----|
E|---------------------------------|---------------------------------|

G|---------------------------------|----4---4---4--------------------|
D|5---------------5----------------|5---------------5----------------|
A|--------5---7-----------5---7----|--------------------7---5---2----|
E|---------------------------------|---------------------------------|

G|---------------------------------|---------------------------------|
D|---------------------------------|--------5---7--------------------|
A|3---------------3----------------|3---------------3---2---3---5----|
E|--------3---------------3---3----|---------------------------------|

G|---------------------------------|---------------------------------|
D|5---------------5----------------|5---------------5---5------------|
A|--------4---5-----------4---5----|--------4---5-----------5--------|
E|---------------------------------|---------------------------------|

G|---------------------------------|----4---4---4--------------------|
D|5---------------5----------------|5---------------5----------------|
A|--------4---5-----------4---5----|--------------------7---5---\----|
E|---------------------------------|---------------------------------|

Chorus :
G|---------------------------------|---------------------------------|
D|5---------------5----------------|5---------------5----------------|
A|--------4---5-----------4---5----|--------4---5-----------4---5----|
E|---------------------------------|---------------------------------|

G|---------------------------------|---------------------------------|
D|5---------------5----------------|5---------------5---5------------|
A|--------4---5-----------4---5----|--------4---5-----------5--------|
E|---------------------------------|---------------------------------|

Bridge :
G|---------------------------------|---------------------------------|
D|5---------------5---5------------|5---------------5------5---------|
A|--------5---------------5--------|--------5---------------5---5----|
E|---------------------------------|---------------------------------|

G|---------------------------------|----4---4---4--------------------|
D|5---------------5---5-------5----|5---------------5---7------------|
A|--------5---------------5--------|------------------------5---2----|
E|---------------------------------|---------------------------------|

G|---------------------------------|---------------------------------|
D|---------------------------------|---------------------------------|
A|3---------------3----------------|3---------------3---2---3---5----|
E|--------3---3-----------3---3----|--------3---3--------------------|

G|---------------------------------|---------------------------------|
D|5---------------5----------------|5---------------5---5------------|
A|--------4---5-----------4---5----|--------5---5-----------5---5----|
E|---------------------------------|---------------------------------|

G|---------------------------------|--------------------4---4--------|
D|5---------------5----------------|5-----------5---5----------------|
A|--------5---------------7---5----|--------5-------------------5----|
E|---------------------------------|---------------------------------|

Chorus :
G|---------------------------------|--------------------4---4---4----|
D|5---------------5----------------|5---------------5----------------|
A|--------5---5-----------4---5----|--------4---5--------------------|
E|---------------------------------|---------------------------------|

G|---------------------------------|---------------------------------|
D|5---------------5----------------|5---------------5---5------------|
A|--------4---5-----------4---5----|--------4---5-----------5---5----|
E|---------------------------------|---------------------------------|

G|---------------------------------|---------------------------------|
D|5-------5------------------------|5-------5------------------------|
A|----------------5-------5--------|----------------5-------5--------|
E|---------------------------------|---------------------------------|

G|---------------------------------|---------------------------------|
D|5-------5------------------------|---------------------------------|
A|----------------5---5------------|--------2---3---5-------5--------|
E|---------------------------------|3-----3--------------------------|

G|---------------------------------|---------------------------------|
D|5-----------5--------------------|---------------------------------|
A|----------------5---5------------|--------2---3---5-------5--------|
E|---------------------------------|3-----3--------------------------|

G|---------------------------------|---------------------------------|
D|5-----------5--------------------|---------------------------------|
A|----------------5---5------------|----------------5-------5---\----|
E|---------------------------------|3-------3---3--------------------|

G|---------------------------------|---------------------------------|
D|5---------------5----------------|5---------------5---5------------|
A|--------4---5-----------4---5----|--------4---5-----------5---5----|
E|---------------------------------|---------------------------------|

G|---------------------------------|---------------------------------|
D|5--------------------------------|---------------------------------|
A|---------------------------------|---------------------------------|
E|---------------------------------|---------------------------------|

Outro : 3:32 (tempo change)
G|---------------------------------|---------------------------------|
D|---------------------------------|---------------------------------|
A|----------------------------0----|2-----------------------2--------|
E|------------3--------------------|---------------------------------|

G|---------------------------------|---------------------------------|
D|---------------------------------|---------------------------------|
A|7-----------------------7--------|2-----------2---2-------5--------|
E|---------------------------------|---------------------------------|

G|---------------------------------|---------------------------------|
D|---------------------------------|---------------------------------|
A|7-----------7---------------0----|2-----------2---2-------5---/----|
E|----------------0----------------|---------------------------------|

G|---------------------------------|---------------------------------|
D|---------------------------------|---------------------------------|
A|7-----------7---7-------/--------|19-------------------------------|
E|---------------------------------|---------------------------------|
Suggest correction
Creating personal tab
Creating personal tab
You can edit any tab online and save it as your Personal.

You can edit, replace or remove any tab part or add personal notes – all changes will be seen only by you.

Personal tabs can be accessed anytime from any device, even offline.
Learn more »
Give kudos to tab author, rate the tab!
1 2 3 4 5
comments
print report bad tab
guest
You may want to rate the tab now too:
select rating
Wanna post a correction for this tab? Suggest correction