Oops, an error
Loading. Please wait.

Live And Let Die Tab

version 1
version 1

Whole song

Interactive

53,768 views 96 this week
7 commentsread comments
1 2 3 4 5
x 18
add to favorites
launch autoscroll
font size
0
reset
how to read this tab
guitar tuner
×
Best way to learn
"Live And Let Die"
Autoscroll
slow
fast
+/-
esc
set tempo
stop
Author
LIVE AND LET DIE
                 PAUL McCARTNEY

Tabbed by Chris Burkett.

This is my first tab and i have checked it many times, so i hope its ok.

Had to do it for school, thought it might help some one in the future. :)

E|--------------------------------------------------------------------|
B|--------------------------------------------------------------------|
G|---------4----5-----7--------4----5----7----------4----5-------7----|
D|---5-----4----5-----7---5----4----5----7-----5----4----5---7---7----|
A|---5-----2----3-----5---5----2----3----5-----5----2----3---7---5----|
E|---3--------------------3--------------------3-------------5--------|

[Verse 1]

E|---------------------------------------------------------------------|
B|---------------------------------------------------------------------|
G|-------------------5--6--7-------5--6--7-----------------------------|
D|---------------5---5--5--5----5--5--5--5-----------------------------|
A|---5--7--8-----5--------------5--------------------------------------|
E|---------------3---3--3--3----3--3--3--3-----------------------------|

[Chorus]

E|------------------------------------------------------------------|
B|------------------------------------------------------------------|
G|------------------------------------------------------------------|
D|---5--7--8--------------------------5--7--8-----------------------|
A|---------------5--7--8---3--1-----------------5--7--8---3--1------|
E|---------------------------------3--------------------------------|

[Instrumental]

E|--------------------------------------------------------------------|
B|--------------------------------------------------------------------|
G|--------------------------------------------------------------------|
D|--5---5---5---5---5---5---5---5---5---5---5---5---5---5---5---5---5-|
A|--5---5---5---5---5---5---5---5---5---5---5---5---5---5---5---5---5-|
E|--3---3---3---3---3---3---3---3---3---3---3---3---3---3---3---3---3-|

[OPTIONAL SOLO instead of chords]

E|------------------------------------------------------------------------|
B|------------------------------------------------------------------------| 
G|--5--5---------------7--7-----9--10-------------------------------------|
D|--5--5------5--5-----7--7-----9--10-------------------------------------|
A|--3--3------5--5-----5--5-----7--8--------------------------------------|
E|------------3--3--------------------------------------------------------|

[Verse 2]

page 1

E|------------------------------------------------------------------|
B|------------------------------------------------------------------|
G|------------------------------------------------------------------|
D|---5--7--8--------------------------5--7--8-----------------------|
A|---------------5--7--8---3--1-----------------5--7--8---3--1------|
E|---------------------------------3--------------------------------|

[Instrumental]

E|----------------------------------------------------------------------|
B|----------------------------------------------------------------------|
G|------------4-------5--------7----------------------------------------|
D|---5--------4-------5--------7----------------------------------------|
A|---5--------2-------3--------5----------------------------------------|
E|---3------------------------------------------------------------------|
SLOW FOR LAST VERSE

E|----------------------------------------------------------------------|
B|----------------------------------------------------------------------|
G|---------4----5-----7----------4----5-------7-------------------------|
D|---5-----4----5-----7-----5----4----5---7---7-------------------------|
A|---5-----2----3-----5-----5----2----3---7---5-------------------------|
E|---3----------------------3-------------5-----------------------------|

[Verse]

E|------------------------------------------------------------------------|
B|------------------------------------------------------------------------|
G|-------------------5--6--7-------5--6--7--------------------------------|
D|---------------5---5--5--5----5--5--5--5--------------------------------|
A|---5--7--8-----5--------------5-----------------------------------------|
E|---------------3---3--3--3----3--3--3--3--------------------------------|

[Chorus]

E|------------------------------------------------------------------|
B|------------------------------------------------------------------|
G|------------------------------------------------------------------|
D|---5--7--8--------------------------5--7--8-----------------------|
A|---------------5--7--8---3--1-----------------5--7--8---3--1------|
E|---------------------------------3--------------------------------|(x4)

INSTRUMENTAL FINISH
Suggest correction
comments
print report bad tab
7 comments total. Showing first comments.
0 reply
rocker007 74 Apr 30, 2006 10:58 PM

the instrumental should be an octave higher but apart from that great tab

0 reply
funkyfingers99 52 May 18, 2006 03:47 PM

nice nice

-1 reply
JimPrenier_11 10 Nov 25, 2007 04:47 PM

Paul Mccartney Rocks I love this song
BOOO GnR Version!

guest
You may want to rate the tab now too:
select rating
Wanna post a correction for this tab? Suggest correction