Oops, an error
Loading. Please wait.

London Town bass

64 views 6 this week
no commentswrite comment
1 2 3 4 5
3 more votes to show rating
add to favorites
×
Save as Personal and add changes to this tab that will be seen only by you. Learn more ›
×
You can save this tab as Personal to edit and correct it or add notes. All changes will be seen only by you. Learn more »
launch autoscroll
font size
0
reset
guitar tuner
edit
Autoscroll
slow
fast
+/-
esc
set tempo
stop
[Intro]
G|---------------------------------|---------------------------------|
D|---------------------------------|---------------------------------|
A|---------------------------------|---------------------------------|
E|---------------------------------|---------------------------------|

G|--------/-11-\|
D|--------------|
A|--------------|
E|--------------|

G|---------------------------------|---------------------------------|
D|----7-------7-------7-------7----|---------------------------------|
A|0-------0-------0-------0--------|----7-------7--------------------|
E|---------------------------------|0-------0-------0----------------|

G|---------------------------------|---------------------------------|
D|4---------------5----------------|8---------------9----------------|
A|---------------------------------|--------9------------------------|
E|---------------------------------|---------------------------------|

G|---------------------------------|
D|----------------5-------4--------|
A|---------------------------------|
E|---------------------------------|

[Verse]
G|---------------------------------|---------------------------------|
D|---------------------------------|---------------------------------|
A|7--------------------------------|7--------------------------------|
E|------------0---0-------0--------|------------0---0-------0--------|

G|---------------------------------|---------------------------------|
D|------------4---4-----------4----|4-----------4---4----------------|
A|---------------------------------|------------------------2---4----|
E|2--------------------------------|---------------------------------|

G|---------------------------------|---------------------------------|
D|2--------------------------------|---------------------------------|
A|--------2h4----------------------|--------------2/7---7-7-7-7-7-7--|
E|------------0-----------5--------|5-------5------------------------|

[Chorus]
G|---------------------------------|---------------------------------|
D|---------------------------------|---------------------------------|
A|---------------------------------|---------------------------------|
E|7---7-7-7---7-7-7---7-7-7---7-\--|5---5-5-5---5-5-5---5-5-5---7-\--|

G|---------------------------------|
D|----------------------------9----|
A|--------7---7-----------7h9------|
E|0--------------------------------|

[Interlude]
G|---------------------------------|---------------------------------|
D|---/7------/7------/7------/7-\--|---------------------------------|
A|0-------0-------0-------0--------|----7-------7-------\------------|
E|---------------------------------|0-------0---------------4-4-4----|

[Verse ]
G|---------------------------------|---------------------------------|
D|---------------------------------|--------------------9-9-9---7----|
A|---------------------------------|---------------------------------|
E|5---------------5-----------5----|7---------------7----------------|

G|---------------------------------|---------------------------------|
D|---------------------------------|4-----------------------4---4----|
A|4---------------4-----/-7--------|---------------------------------|
E|--------------4------------------|----------------2----------------|

G|----------------4----------------|---------------------------------|
D|---------------------------------|---------------------------------|
A|2---------------------------9----|7--------------------------------|
E|---------------------------------|------------7-\-0-----/-4--------|

G|---------------------------------|---------------------------------|
D|--------4-------2-----------2----|4---------------5----------------|
A|------------------------4--------|---------------------------------|
E|5--------------------------------|---------------------------------|

G|---------------------------------|---------------|
D|6-----------7--------------------|---------------|
A|---------------------------------|---------------|
E|---------------------------------|---------------|

G|---------------------------------|1--/9----------------------------|
D|4---------------5----------------|---------------------------------|
A|---------------------------------|--------7---0--------------------|
E|---------------------------------|---------------------------------|

G|--------------|
D|--------------|
A|--------------|
E|--------------|

G|---------------------------------|---------------------------------|
D|4-------4-------5----------------|---------------------------------|
A|---------------------------------|----------------7----------------|
E|---------------------------------|------------------------9--------|

G|---------------------------------|---------------------------------|
D|---------------------------------|--------9---9---9---7h9-9---7----|
A|---------------------------------|---------------------------------|
E|5-----------5---5-------5--------|7--------------------------------|

G|--------------------6------------|---------------------------------|
D|-------------/--7-------7---\----|4--------------------------------|
A|4--------------------------------|------------4--------------------|
E|---------------------------------|-------------2-----2-------------|

G|---------------------------------|---------------------------------|
D|--------------9-9----------------|---------------------------------|
A|------------------------9---\----|7-------2h4----------------------|
E|7--------------------------------|------------0---0-------/--------|

G|---------------------------------|---------------------------------|
D|---------------------------------|4---------------5----------------|
A|---------------------------------|---------------------------------|
E|5--------------------------------|---------------------------------|

G|---------------------------------|---------------------------------|
D|6-----------7--------------------|----------------4----------------|
A|---------------------------------|---------------------------------|
E|---------------------------------|---------------------------------|

G|----------------1--/9------------|---------------------------------|
D|5--------------------------------|----------------4-------4--------|
A|------------------------7---0----|---------------------------------|
E|---------------------------------|---------------------------------|

[Interlude]
G|---------------------------------|---------------------------------|
D|5---------------8-------8--------|9---9---9---9---9---9---9-/-16---|
A|---------------------------------|---------------------------------|
E|---------------------------------|---------------------------------|

G|---------------------------------|---------------------------------|
D|----7-------7-------7-------7----|---------------------------------|
A|0-------0-------0-------0--------|----7-------7---------/-4--------|
E|------------------------------7--|0-------0------------------------|

G|---------------------------------|---------------------------------|
D|4-------4-------5----------------|8---------------9----------------|
A|---------------------------------|--------9------------------------|
E|---------------------------------|---------------------------------|

G|---------------------------------|
D|9-\-------------5-------4--------|
A|---------------------------------|
E|--------7------------------------|

[Verse]
G|---------------------------------|---------------------------------|
D|---------------------------------|---------------------------------|
A|7--------------------------------|---------------------------------|
E|------------0---0-------0--------|0---0---0---0---0---0---0---0----|

G|---------------------------------|---------------------------------|
D|--------------4------------------|--------------4-4-------4---5----|
A|---------------------------------|---------------------------------|
E|2-------2-------2-------2--------|2--------------------------------|

G|---------------------------------|---------------------------------|
D|----------------------------2-/--|8---8---8--\------------7-8-9----|
A|7-------2h4----------------------|----------------7---7------------|
E|------------0--------------------|---------------------------------|

[Chorus]
G|---------------------------------|---------------------------------|
D|9--------------------------------|---------------------------------|
A|---------------------------------|---------------------------------|
E|----7-7-7---7---7---7---7---\----|5-------5-------5-------5--------|

G|---------------------------------|
D|----------------------------9----|
A|--------7---7-------7---7h9------|
E|0--------------------------------|

[Interlude]
G|---------------------------------|---------------------------------|
D|----7-------7-------7-------7----|---------------------------------|
A|0-------0-------0-------0--------|----7-------7--------------------|
E|---------------------------------|0-------0-----------7-\-0--------|

G|---------------------------------|------------9-9-9----------------|
D|---------------------------------|------------------------9-\------|
A|---------------------------------|---------------------------------|
E|5-------------------5-5-5---5-5--|7-------------------7------------|

G|---------------------------------|---------------------------------|
D|------------------------2---3----|4--------------------------------|
A|4-------------4-4----------------|---------------------------------|
E|---------------------------------|----------------2---2---2--------|

G|---------------------------------|---------------------------------|
D|----------------9----------------|---------------------------------|
A|---------------------------------|---------------------------------|
E|7-----------------------7--------|0-----3/4-------0---------3/4----|

G|---------------------------------|
D|---------------------------------|
A|---------------------------------|
E|5--------------------------------|

[Solo] change tempo
G|------------------------------------------------------------------|
D|4-----/-7-------7-------7--------7---4---7----------------2h4-----|
A|------------------------------------------------------------------|
E|------------------------------------------------------------------|

G|---------------------------------|----------------------------6----|
D|4-----------4-------4------------|-----------4------------7-9------|
A|------------------------2h4------|---------------------------------|
E|---------------------------------|2--------------------------------|

G|------------------------------------------------------------------|
D|--------7-7-7-------7-------7------/10------7---7---7---7---6-----|
A|7-----------------------------------------------------------------|
E|------------------------------------------------------------------|

[Outro] Change tempo 
G|---------------------------------|---------------------------------|
D|4---------------5----------------|6--------------------------------|
A|---------------------------------|--------7---0--------------------|
E|---------------------------------|---------------------------------|

G|--------------|
D|--------------|
A|--------------|
E|--------------|

G|--------11--------------12--10---|-----13*----14-------------------| multiple
D|---------------------------------|---------------------------------|
A|9---------------10---------------|11-------------------------------|
E|---------------------------------|---------------------------------|

G|--------------|
D|--------------|
A|--------------|
E|--------------|

G|---------------------------------|---------------------------------|
D|---------------------------------|---------------------------------|
A|---------------------------------|5-----------------------7---\----|
E|3--------------------------------|---------------------------------|

G|---------------------------------|---------------------------------|
D|---------------------------------|---------------------------------|
A|0--------------------------------|---------------------------------|
E|---------------------------------|---------------------------------|

************************************

| /  Slide up
| \  Slide down
| h  Hammer on

************************************

            
            
Suggest correction
Creating personal tab
Creating personal tab
You can edit any tab online and save it as your Personal.

You can edit, replace or remove any tab part or add personal notes – all changes will be seen only by you.

Personal tabs can be accessed anytime from any device, even offline.
Learn more »
Give kudos to tab author, rate the tab!
1 2 3 4 5
comments
print report bad tab
guest
You may want to rate the tab now too:
select rating
Wanna post a correction for this tab? Suggest correction