Oops, an error
Loading. Please wait.

Looking At Her bass

28 views 3 this week
no commentswrite comment
1 2 3 4 5
2 more votes to show rating
add to favorites
×
Save as Personal and add changes to this tab that will be seen only by you. Learn more ›
×
You can save this tab as Personal to edit and correct it or add notes. All changes will be seen only by you. Learn more »
launch autoscroll
font size
0
reset
guitar tuner
edit
Autoscroll
slow
fast
+/-
esc
set tempo
stop
Intro :
G|---------------------------------|---------------------------------|
D|---------------------------------|---------------------------------|
A|0---0---0---0---0---0---0---/----|7---7---7---7---7---7---7---\----|
E|---------------------------------|---------------------------------|

G|---------------------------------|---------------------------------|
D|---------------------------------|---------------------------------|
A|0---0---0---0---0---0---0---/----|7---7---7------------------------|
E|---------------------------------|---------------------------------|

Verse 1 :
G|---------------------------------|---------------------------------|
D|---------------------------------|---------------------------------|
A|----------------4---4------------|---------------------------------|
E|4---4----------------------------|4---4-----------4---4------------|

G|---------------------------------|---------------------------------|
D|---------------------------------|---------------------------------|
A|----------------4---4------------|---------------------------------|
E|4---4----------------------------|2---2-----------2---2------------|

G|---------------------------------|---------------------------------|
D|---------------------------------|---------------------------------|
A|---------------------------------|2---2-----------2---2------------|
E|2---2-----------2---2------------|---------------------------------|

G|---------------------------------|
D|---------------------------------|
A|---------------------------------|
E|0---0-----------0---0------------|

Chorus :
G|---------------------------------|---------------------------------|
D|---------------------------------|---------------------------------|
A|---------------------------------|---------------------------------|
E|5---5---5---5---2---2---2---2----|0---0---0---0---0---0---0---0----|

G|---------------------------------|---------------------------------|
D|---------------------------------|---------------------------------|
A|---------------------------------|---------------------------------|
E|5---5---5---5---2---2---2---2----|0---0---0---0---0---0---0---0----|

G|---------------------------------|---------------------------------|
D|---------------------------------|---------------------------------|
A|---------------------------------|---------------------------------|
E|5---5---5---5---3---3---3---3----|2---2---2---2---1---1---1---1----|

G|---------------------------------|---------------------------------|
D|---------------------------------|---------------------------------|
A|---------------------------------|---------------------------------|
E|1---1---1---1-/-5---5---5---5----|5---5---5---5---0---0---0---0----|

G|---------------------------------|---------------------------------|
D|---------------------------------|---------------------------------|
A|5---5---5---5---5---5---5---5----|7---7---7------------------------|
E|---------------------------------|---------------------------------|

Verse 2 :
G|---------------------------------|---------------------------------|
D|---------------------------------|---------------------------------|
A|----------------4---4------------|---------------------------------|
E|4---4----------------------------|4---4-----------4---4------------|

G|---------------------------------|---------------------------------|
D|---------------------------------|---------------------------------|
A|----------------4---4------------|---------------------------------|
E|4---4----------------------------|2---2-----------2---2------------|

G|---------------------------------|---------------------------------|
D|---------------------------------|---------------------------------|
A|---------------------------------|2---2-----------2---2------------|
E|2---2-----------2---2------------|---------------------------------|

G|---------------------------------|
D|---------------------------------|
A|---------------------------------|
E|0---0-----------0---0------------|

Chorus :
G|---------------------------------|---------------------------------|
D|---------------------------------|---------------------------------|
A|---------------------------------|---------------------------------|
E|5---5---5---5---2---2---2---2----|0---0---0---0---0---0---0---0----|

G|---------------------------------|---------------------------------|
D|---------------------------------|---------------------------------|
A|---------------------------------|---------------------------------|
E|5---5---5---5---2---2---2---2----|0---0---0---0---0---0---0---0----|

G|---------------------------------|---------------------------------|
D|---------------------------------|---------------------------------|
A|---------------------------------|---------------------------------|
E|5---5---5---5---3---3---3---3----|2---2---2---2---1---1---1---1----|

G|---------------------------------|---------------------------------|
D|---------------------------------|---------------------------------|
A|---------------------------------|---------------------------------|
E|1---1---1---1---0---0---0---0----|0---0---0---0---0---0---0---0----|

G|---------------------------------|---------------------------------|
D|---------------------------------|---------------------------------|
A|5---5---5---5---5---5---5---5----|7---7---7---7---7---7---7---7-\--|
E|---------------------------------|---------------------------------|

G|---------------------------------|---------------------------------|
D|---------------------------------|---------------------------------|
A|5---5---5---5---5---5---5---5-/--|7---7---7---7---7---7---7---7-\--|
E|---------------------------------|---------------------------------|

G|---------------------------------|---------------------------------|
D|---------------------------------|---------------------------------|
A|5---5---5---5---5---5---5---5----|7---7---7---7---7---7---7---7-\--|
E|---------------------------------|---------------------------------|

G|---------------------------------|---------------------------------|
D|---------------------------------|---------------------------------|
A|5---5---5---5---5---5---5---5----|7---7---7---7---7---7---7---7-\--|
E|---------------------------------|---------------------------------|

G|---------------------------------|---------------------------------|
D|---------------------------------|---------------------------------|
A|5---5---5---5---5---5---5---5-/--|7---7---7------------------------|
E|---------------------------------|---------------------------------|

Solo :
G|---------------------------------|---------------------------------|
D|---------------------------------|---------------------------------|
A|----------------4---4------------|---------------------------------|
E|4---4----------------------------|4---4-----------4---4------------|

G|---------------------------------|---------------------------------|
D|---------------------------------|---------------------------------|
A|----------------4---4------------|---------------------------------|
E|4---4----------------------------|2---2-----------2---2------------|

G|---------------------------------|---------------------------------|
D|---------------------------------|---------------------------------|
A|---------------------------------|2---2-----------2---2------------|
E|2---2-----------2---2------------|---------------------------------|

G|---------------------------------|
D|---------------------------------|
A|---------------------------------|
E|0---0-----------0---0------------|

Chorus :
G|---------------------------------|---------------------------------|
D|---------------------------------|---------------------------------|
A|---------------------------------|---------------------------------|
E|5---5---5---5---2---2---2---2----|0---0---0---0---0---0---0---0----|

G|---------------------------------|---------------------------------|
D|---------------------------------|---------------------------------|
A|---------------------------------|---------------------------------|
E|5---5---5---5---2---2---2---2----|0---0---0---0---0---0---0---0----|

G|---------------------------------|---------------------------------|
D|---------------------------------|---------------------------------|
A|---------------------------------|---------------------------------|
E|5---5---5---5---3---3---3---3----|2---2---2---2---1---1---1---1----|

G|---------------------------------|---------------------------------|
D|---------------------------------|---------------------------------|
A|---------------------------------|---------------------------------|
E|1---1---1---1---0---0---0---0----|0---0---0---0---0---0---0---0----|

G|---------------------------------|---------------------------------|
D|---------------------------------|---------------------------------|
A|5---5---5---5---5---5---5---5----|7---7---7---7---7---7---7---7-\--|
E|---------------------------------|---------------------------------|

G|---------------------------------|---------------------------------|
D|---------------------------------|---------------------------------|
A|5---5---5---5---5---5---5---5----|7---7---7---7---7---7---7---7-\--|
E|---------------------------------|---------------------------------|

G|---------------------------------|---------------------------------|
D|---------------------------------|---------------------------------|
A|5---5---5---5---5---5---5---5----|7---7---7---7---7---7---7---7-\--|
E|---------------------------------|---------------------------------|

G|---------------------------------|---------------------------------|
D|----------------------------7----|---------------------------------|
A|5---5---5---5---5---5---5--------|---------------------------------|
E|---------------------------------|---------------------------------|
Suggest correction
Creating personal tab
Creating personal tab
You can edit any tab online and save it as your Personal.

You can edit, replace or remove any tab part or add personal notes – all changes will be seen only by you.

Personal tabs can be accessed anytime from any device, even offline.
Learn more »
Give kudos to tab author, rate the tab!
1 2 3 4 5
comments
print report bad tab
guest
You may want to rate the tab now too:
select rating
Wanna post a correction for this tab? Suggest correction