Oops, an error
Loading. Please wait.

Lovers That Never Were bass

19 views 1 this week
no commentswrite comment
1 2 3 4 5
3 more votes to show rating
add to favorites
×
Save as Personal and add changes to this tab that will be seen only by you. Learn more ›
×
You can save this tab as Personal to edit and correct it or add notes. All changes will be seen only by you. Learn more »
launch autoscroll
font size
0
reset
guitar tuner
edit
Autoscroll
slow
fast
+/-
esc
set tempo
stop
Intro :
G|-------------------------|-------------------------|
D|-------------------------|-------------------------|
A|-------------------------|-------------------------|
E|-------------------------|-------------------------|

Verse 1 :
G|-------------------------|-------------------------|
D|-------------------------|-------------------------|
A|-------------------------|------------6------------|
E|0------------------------|7------------------------|

G|-------------------------|-------------------------|
D|-------------------------|7------------------------|
A|------------7------------|------------5------------|
E|5------------------------|-------------------------|

G|-------------------------|-------------------------|
D|-------------------------|-------------------------|
A|------------3------------|5------------------------|
E|3------------------------|------------3------------|

G|-------------------------|-------------------------|
D|-------------------------|-------------------------|
A|7------------------------|-------------------------|
E|--------------------7----|0------------------------|

G|-------------------------|-------------------------|
D|-------------------------|-------------------------|
A|-------------------------|----------------2---5----|
E|3------------------------|3-----------3------------|

Chorus :
G|-------------------------|-------------------------|
D|-------------------------|-------------------------|
A|6------------------------|3------------------------|
E|-------------------------|-------------------------|

G|-------------------------|-------------------------|
D|-------------------------|-------------------------|
A|6------------------------|6------------------------|
E|-------------------------|-------------------------|

G|-------------------------|-------------------------|
D|-------------------------|-------------------------|
A|6-------------------1----|3------------------------|
E|-------------------------|-------------------------|

G|-------------------------|-------------------------|
D|-------------------------|-------------------------|
A|-------------------------|-------------------------|
E|3-----------3------------|3---3---3---3------------|

Verse 2 :
G|-------------------------|-------------------------|
D|-------------------------|-------------------------|
A|7-----------7------------|------------6------------|
E|-------------------------|7------------------------|

G|-------------------------|-------------------------|
D|-------------------------|7------------------------|
A|------------7------------|------------5------------|
E|5------------------------|-------------------------|

G|-------------------------|-------------------------|
D|-------------------------|-------------------------|
A|------------3------------|5---------------2---5----|
E|3------------------------|------------3------------|

G|-------------------------|-------------------------|
D|-------------------------|-------------------------|
A|7-----------7------------|-------------------------|
E|-------------------------|0-----------0-------2----|

G|-------------------------|-------------------------|
D|-------------------------|-------------------------|
A|-------------------------|----------------2---5----|
E|3-----------3------------|3-----------3------------|

Chorus :
G|-------------------------|-------------------------|
D|-------------------------|-------------------------|
A|6-----------6------------|3-----------3------------|
E|-------------------------|-------------------------|

G|-------------------------|-------------------------|
D|-------------------------|-------------------------|
A|6-----------6------------|6-----------6------------|
E|-------------------------|-------------------------|

G|-------------------------|-------------------------|
D|-------------------------|-------------------------|
A|6-----------6------------|3-----------3------------|
E|-------------------------|-------------------------|

G|-------------------------|-------------------------|
D|-------------------------|-------------------------|
A|------------2------------|3-----------6------------|
E|3------------------------|-------------------------|

G|-------------------------|-------------------------|
D|-------------------------|-------------------------|
A|------------2------------|3-----------6------------|
E|3------------------------|-------------------------|

G|-------------------------|-------------------------|
D|-------------------------|-------------------------|
A|------------2------------|3-----------6------------|
E|3------------------------|-------------------------|

G|-------------------------|-------------------------|
D|-------------------------|-------------------------|
A|5------------------------|------------6------------|
E|------------7------------|8------------------------|

G|-------------------------|-------------------------|
D|-------------------------|-------------------------|
A|------------2------------|3-----------6------------|
E|3------------------------|-------------------------|

G|-------------------------|-------------------------|
D|-------------------------|-------------------------|
A|------------2------------|3-----------6------------|
E|3------------------------|-------------------------|

G|-------------------------|-------------------------|
D|-------------------------|-------------------------|
A|------------2------------|3-----------6------------|
E|3------------------------|-------------------------|

G|-------------------------|-------------------------|
D|-------------------------|-------------------------|
A|5------------------------|-------------------------|
E|------------7------------|2-----------2------------|

G|-------------------------|-------------------------|
D|-------------------------|-------------------------|
A|2-----------2---3---4----|5---5---5---5------------|
E|-------------------------|-------------------------|

Verse 3 :
G|-------------------------|-------------------------|
D|-------------------------|-------------------------|
A|7-----------7------------|------------6------------|
E|-------------------------|7------------------------|

G|-------------------------|-------------------------|
D|-------------------------|7------------------------|
A|------------7------------|------------5------------|
E|5------------------------|-------------------------|

G|-------------------------|-------------------------|
D|-------------------------|-------------------------|
A|------------3------------|5---------------2---5----|
E|3------------------------|------------3------------|

G|-------------------------|-------------------------|
D|-------------------------|-------------------------|
A|7-----------7------------|-------------------------|
E|-------------------------|0-----------0------------|

G|-------------------------|-------------------------|
D|-------------------------|-------------------------|
A|-------------------------|----------------2---5----|
E|3-----------3------------|3-----------3------------|

Chorus :
G|-------------------------|-------------------------|
D|-------------------------|-------------------------|
A|6-----------6------------|3-----------3------------|
E|-------------------------|-------------------------|

G|-------------------------|-------------------------|
D|-------------------------|-------------------------|
A|6-----------6------------|6-----------6------------|
E|-------------------------|-------------------------|

G|-------------------------|-------------------------|
D|-------------------------|-------------------------|
A|6-----------6-------6-\--|3-----------3------------|
E|-------------------------|-------------------------|

G|-------------------------|-------------------------|
D|-------------------------|-------------------------|
A|------------2------------|3-----------6------------|
E|3------------------------|-------------------------|

G|-------------------------|-------------------------|
D|-------------------------|-------------------------|
A|------------2------------|3-----------6------------|
E|3------------------------|-------------------------|

G|-------------------------|-------------------------|
D|-------------------------|-------------------------|
A|------------2------------|3-----------6------------|
E|3------------------------|-------------------------|

G|-------------------------|-------------------------|
D|-------------------------|-------------------------|
A|5------------------------|------------6------------|
E|------------7------------|8------------------------|

G|-------------------------|-------------------------|
D|-------------------------|-------------------------|
A|------------2------------|3-----------6------------|
E|3------------------------|-------------------------|

G|-------------------------|-------------------------|
D|-------------------------|-------------------------|
A|------------2------------|3-----------6------------|
E|3------------------------|-------------------------|

G|-------------------------|-------------------------|
D|-------------------------|-------------------------|
A|------------2------------|3-----------6------------|
E|3------------------------|-------------------------|

G|-------------------------|-------------------------|
D|-------------------------|-------------------------|
A|5------------------------|------------6------------|
E|------------7------------|8------------------------|

G|-------------------------|-------------------------|
D|-------------------------|-------------------------|
A|--------/---2------------|-------------------------|
E|3------------------------|2-----------2------------|

G|-------------------------|-------------------------|
D|-------------------------|-------------------------|
A|2-----------2---3---4----|5---5---5---5------------|
E|-------------------------|-------------------------|

Outro : (decrescendo)
G|-------------------------|-------------------------|
D|-------------------------|-------------------------|
A|6-----------6-------5----|3-----------3------------|
E|-------------------------|-------------------------|

G|-------------------------|-------------------------|
D|-------------------------|-------------------------|
A|-------------------------|-------------------------|
E|3------------------------|-------------------------|

            
            
Suggest correction
Creating personal tab
Creating personal tab
You can edit any tab online and save it as your Personal.

You can edit, replace or remove any tab part or add personal notes – all changes will be seen only by you.

Personal tabs can be accessed anytime from any device, even offline.
Learn more »
Give kudos to tab author, rate the tab!
1 2 3 4 5
comments
print report bad tab
guest
You may want to rate the tab now too:
select rating
Wanna post a correction for this tab? Suggest correction