Oops, an error
Loading. Please wait.

Magic Bass Tab

19 views 3 this week
no commentswrite comment
1 2 3 4 5
3 more votes to show rating
add to favorites
launch autoscroll
font size
0
reset
guitar tuner
Autoscroll
slow
fast
+/-
esc
set tempo
stop
Help us to improve Ultimate-Guitar.com Take our survey!
×
[Intro]
G|---------------------------------|---------------------------------|
D|---------------------------------|---------------------------------|
A|---------------------------------|---------------------------------|
E|---------------------------------|----------------------------8-\--|

[Chorus]
G|---------------------------------|---------------------------------|
D|---------------------------------|---------------------------------|
A|---------------------------------|----------------7---7---3--------|
E|1-----------1---1-----------1----|5-------8------------------------|

G|---------------------------------|---------------------------------|
D|---------------------------------|---------------------------------|
A|---------------------------------|----------------3----------------|
E|3-----------3---3-----------3----|1-------5---------------5--------|

G|---------------------------------|---------------------------------|
D|---------------------------------|---------------------------------|
A|7-----------7---7----------------|---------------------------------|
E|---------------------------------|0---0-------0---0----------------|

G|---------------------------------|---------------------------------|
D|---------------------------------|----------------7---7------------|
A|5-----------5---5-----------5----|5-------8---------------8---10---|
E|---------------------------------|---------------------------------|

G|---------------------------------|
D|---------------------------------|
A|---------------------------------|
E|3-----------3---3-------3--------|

G|---------------------------------|--------5------/8--/7--/5---5----|
D|----------------------------5----|7---7----------------------------|
A|8---------------8-------8--------|---------------------------------|
E|------------8--------------------|---------------------------------|

G|---------------------------------|---------------------------------|
D|5-----------5---5----------------|------------------------3--------|
A|---------------------------------|------------5---3----------------|
E|---------------------------------|1--------------------------------|

G|---------------------------------|----------------9----------------|
D|---------------------------------|------------2-/9--------9--------|
A|7-----------7---7----------------|---------------------------------|
E|---------------------------------|0---0----------------------------|

G|---------------------------------|---------------------------------|
D|---------------------------------|---------------------------------|
A|5-----------5---5----------------|5-----------5---5----------------|
E|---------------------------------|---------------------------------|

G|---------------------------------|---------------------------------|
D|---------------------------------|---------------------------------|
A|---------------------------------|3-------0---------------0---3----|
E|3-----------3---3-------3--------|----------------3----------------|

[Bridge]
G|---------------------------------|---------------------------------|
D|---------------------------------|---------------------------------|
A|---------------------------------|3---3---2-------0----------------|
E|1-----------1---1-----------1----|------------------------3--------|

G|---------------------------------|---------------------------------|
D|---------------------------------|---------------------------------|
A|---------------------------------|3---3---2-------0----------------|
E|1-----------1---1-----------1----|------------------------3--------|

G|---------------------------------|---------------------------------|
D|---------------------------------|------------------------2--------|
A|---------------------------------|----------------3----------------|
E|1-----------1---1-----------1----|5---5---3------------------------|

G|---------------------------------|--------------------7------------|
D|5-------5-------5------/7--/7----|5---------------5h7-----7---\----|
A|---------------------------------|---------------------------------|
E|---------------------------------|---------------------------------|

[Chorus]
G|---------------------------------|--------5------7---/9---9---\----|
D|----------------------------5----|7---7----------------------------|
A|8---------------8-------8--------|---------------------------------|
E|------------8--------------------|---------------------------------|

G|---------------------------------|---------------------------------|
D|5-----------5---5-----------5----|3--------------------------------|
A|---------------------------------|------------5---3----------------|
E|---------------------------------|------------------------1--------|

G|---------------------------------|----------------9----------------|
D|---------------------------------|------------2-/9--------9---\----|
A|7-----------7---7-----------7----|---------------------------------|
E|---------------------------------|0---0----------------------------|

G|---------------------------------|---------------------------------|
D|5---5----------------------------|---------------------------------|
A|------------5---5---5------------|5---5---3-------2-------0--------|
E|---------------------------------|---------------------------------|

G|---------------------------------|
D|----5---3-------2----------------|
A|------------------------5--------|
E|3--------------------------------|

G|---------------------------------|---------------------------------|
D|---------------------------------|---------------------------------|
A|3-----------3--------------------|---------------------------------|
E|----------------1----------------|5---5---5---0---3-------5--------|

G|---------------------------------|---------------------------------|
D|---------------------------------|---------------------------------|
A|---------------------------------|----------------3----------------|
E|3-----------3---3-----------3----|1-------5---------------1--------|

G|---------------------------------|------------------------9-\------|
D|---------------------------------|---------------------------------|
A|---------------------------------|----------------------------0----|
E|0-----------0---0-----------0----|0---0-------0---0----------------|

G|---------------------------------|---------------------------------|
D|---------------------------------|----------------7----------------|
A|5-----------5---5-----------5----|5---5---8---------------8---10---|
E|---------------------------------|---------------------------------|

G|---------------------------------|---------------------------------|
D|5--------------------------------|---------------------------------|
A|------------------------0--------|3---3---3-------0----------------|
E|--------3---3---3----------------|------------------------3--------|

[Bridge]
G|---------------------------------|---------------------------------|
D|---------------------------------|---------------------------------|
A|---------------------------------|3---3---2-------0----------------|
E|1-----------1---1-----------1----|------------------------3--------|

G|---------------------------------|---------------------------------|
D|---------------------------------|---------------------------------|
A|---------------------------------|3---3---2-------0----------------|
E|1-----------1---1-----------1----|------------------------3--------|

G|---------------------------------|---------------------------------|
D|---------------------------------|------------------------2--------|
A|---------------------------------|----------------3----------------|
E|1-----------1---1-----------1----|5---5---5------------------------|

G|---------------------------------|---------------------------------|
D|5-------5-----------3--/7---7----|5-------3-------2----------------|
A|----------------5----------------|------------------------5--------|
E|---------------------------------|---------------------------------|

[Chorus]
G|---------------------------------|---------------------------------|
D|---------------------------------|---------------------------------|
A|8---------------8----------------|---------------------------------|
E|------------8--------------------|5---5---0------3-h-5---5---------|

G|---------------------------------|---------------------------------|
D|----------------5-----------5----|3---------------------------3----|
A|3---0----------------------------|------------0---3---0---3--------|
E|--------3------------------------|---------------------------------|

G|---------------------------------|----------------9----------------|
D|2-----------2---2-----------2----|2---2-------2-/9--------9---\----|
A|---------------------------------|---------------------------------|
E|---------------------------------|---------------------------------|

G|---------------------------------|---------------------------------|
D|---------------------------------|----------------7----------------|
A|5-----------5---5-----------5----|5---5---8---------------8---10---|
E|---------------------------------|---------------------------------|

G|---------------------------------|------------------------5---\----|
D|---------------------------------|----------------5---5/-7---------|
A|---------------------------------|3-------3---5/-7-----------------|
E|3---3---3---3---3-------3--------|---------------------------------|

[Outro]
G|---------------------------------|---------------------------------|
D|---------------------------------|---------------------------------|
A|8-----------8---8-----------8----|---------------------------------|
E|---------------------------------|5-------0-------3-------5--------|

G|---------------------------------|---------------------------------|
D|---------------------------------|---------------------------------|
A|---------------------------------|----------------3----------------|
E|1-----------1---1-----------3----|5---0---3---5-------5---3--------|

G|---------------------------------|---------------------------------|
D|---------------------------------|---------------------------------|
A|---------------------------------|--------3-------7----------------|
E|1-----------1---1-----------3----|5-----------------------8---\----|

G|---------------------------------|---------------------------------|
D|---------------------------------|---------------------------------|
A|---------------------------------|3---3-------------------3--------|
E|1-----------1---1----------------|--------5-------3---5------------|

G|---------------------------------|---------------------------------|
D|---------------------------------|---------------------------------|
A|3--------------------------------|3--------------------------------|
E|---------------------------------|---------------------------------|

G|---------------------------------|---------------------------------|
D|---------------------------------|---------------------------------|
A|3--------------------------------|---------------------------------|
E|---------------------------------|---------------------------------|



************************************

| \  Slide down
| /  Slide up
| h  Hammer-on

************************************
Suggest correction
Give kudos to tab author, rate the tab!
1 2 3 4 5
comments
print report bad tab
guest
You may want to rate the tab now too:
select rating
Wanna post a correction for this tab? Suggest correction