Oops, an error
Loading. Please wait.

Mamas Little Girl bass

16 views 1 this week
no commentswrite comment
1 2 3 4 5
3 more votes to show rating
add to favorites
×
Save as Personal and add changes to this tab that will be seen only by you. Learn more ›
×
You can save this tab as Personal to edit and correct it or add notes. All changes will be seen only by you. Learn more »
launch autoscroll
font size
0
reset
guitar tuner
edit
Autoscroll
slow
fast
+/-
esc
set tempo
stop
00:45
Chorus :
G|---------------|
D|7--------------|
A|--------7------|
E|---------------|

G|---------------------------------|---------------------------------|
D|7--------------------------------|----------------7-------7--------|
A|--------7-------5-------5--------|4-------2---0--------------------|
E|---------------------------------|---------------------------------|

G|---------------------------------|---------------------------------|
D|7-------7------------------------|---------------------------------|
A|--------------7p5-------5--------|4-------2---0--------------------|
E|---------------------------------|----------------3-------3--------|

G|---------------------------------|---------------|
D|---------------------------------|---------------|
A|---------------------------------|---------------|
E|3-------3-------2-------2--------|1-------1---0--|

G|---------------------------------|---------------------------------|
D|---------------------------------|---------------------------------|
A|------------------------2---4----|5-----------2--------------------|
E|5-------5-------5----------------|--------2-------5-------5--------|

G|---------------------------------|---------------------------------|
D|---------------------------------|---------------------------------|
A|----------------------------4----|5-------5-------4----------------|
E|5-------5-------5-------5--------|------------------------7---5----|

G|---------------------------------|---------------------------------|
D|---------------------------------|---------------------------------|
A|--------7---------------7--------|5-------5-------4-------2---0----|
E|5---------------5----------------|---------------------------------|

Chorus :
G|---------------------------------|---------------------------------|
D|---------------------------------|---------------------------------|
A|---------------------------------|---------------------------------|
E|3-------3-------3-------3--------|2-------2-------1-------1---0----|

G|---------------------------------|---------------------------------|
D|---------------------------------|---------------------------------|
A|------------------------2---4----|5-------5-------4----------------|
E|5-------5-------5----------------|------------------------7---5----|

Interlude :
G|---------------------------------|---------------------------------|
D|----------------7------7---------|---------------------------------|
A|--------7---------------7--------|5-------5-------4----------------|
E|5--------------------------------|------------------------7---5----|

G|---------------------------------|---------------------------------|
D|----------------7----------------|---------------------------------|
A|--------7---------------7---6----|5-------5-------4-------2---0----|
E|5--------------------------------|---------------------------------|

Chorus : 
G|---------------------------------|7--------------------------------|
D|---------------------------------|----------------7----------------|
A|---------------------------------|---------------------------------|
E|3--------------------------------|---------------------------------|

G|---------------------------------|7--------------------------------|
D|---------------------------------|----------------7----------------|
A|---------------------------------|---------------------------------|
E|5--------------------------------|---------------------------------|

Solo :
G|---------------------------------|---------------------------------|
D|---------------------------------|---------------------------------|
A|---------------------------------|---------------------------------|
E|---------------------------------|---------------------------------|

G|---------------------------------|---------------------------------|
D|---------------------------------|---------------------------------|
A|---------------------------------|---------------------------------|
E|5--------------------------------|---------------------------------|

G|---------------------------------|---------------------------------|
D|7--------------------------------|---------------------------------|
A|---------------------------------|---------------------------------|
E|---------------------------------|---------------------------------|

Bridge :
G|---------------------------------|---------------------------------|
D|7--------------------------------|7--------------------------------|
A|---------------------------------|---------------------------------|
E|---------------------------------|---------------------------------|

G|---------------------------------|---------------------------------|
D|---------------------------------|---------------------------------|
A|---------------------------------|---------------------------------|
E|---------------------------------|---------------------------------|

G|---------------------------------|---------------------------------|
D|---------------------------------|---------------------------------|
A|---------------------------------|---------------------------------|
E|---------------------------------|---------------------------------|

G|---------------------------------|---------------------------------|
D|---------------------------------|---------------------------------|
A|5---------------7----------------|---------------------------------|
E|---------------------------------|5--------------------------------|

G|---------------------------------|---------------------------------|
D|---------------------------------|---------------------------------|
A|----------------5----------------|---------------------------------|
E|---------------------------------|5--------------------------------|

G|---------------------------------|---------------------------------|
D|---------------------------------|---------------------------------|
A|5---------------7----------------|---------------------------------|
E|---------------------------------|5--------------------------------|

G|---------------------------------|---------------------------------|
D|---------------------------------|----------------7----------------|
A|---------------------------------|------------------------7---4----|
E|---------------------------------|---------------------------------|

Chorus :
G|---------------------------------|---------------------------------|
D|---------------------------------|---------------------------------|
A|------------------------2---4----|5-------5-----7\4-------2---0----|
E|5-------5-------5----------------|---------------------------------|

G|---------------------------------|---------------------------------|
D|7-------7-------7-------7-------7|---------------------------------|
A|---------------------------------|5-------5-------4-------2---0----|
E|---------------------------------|---------------------------------|

G|---------------------------------|---------------------------------|
D|---------------------------------|---------------------------------|
A|---------------------------------|---------------------------------|
E|3-------3-------3-------3--------|2-------2-------1-------1---0----|

G|---------------------------------|---------------------------------|
D|---------------------------------|---------------------------------|
A|------------------------2---4----|5-------5-------4----------------|
E|5-------5-------5----------------|------------------------7---5----|

G|---------------------------------|---------------------------------|
D|----------------7----------------|---------------------------------|
A|--------7---------------7--------|5-------4---2--------------------|
E|5--------------------------------|----------------5-\-0---2---4----|

G|---------------------------------|---------------------------------|
D|---------------------------------|---------------------------------|
A|------------------------2---4----|5-------4---2--------------------|
E|5-------5-------5----------------|----------------5-\-0---2---4----|

G|---------------------------------|----------------7----------------|
D|---------------------------------|4-------4------------------------|
A|---------------------------------|---------------------------------|
E|3--------------------------------|---------------------------------|

Outro :
G|---------------------------------|---------------------------------|
D|---------------------------------|---------------------------------|
A|--------7---------------7--------|--------5---7--------------------|
E|5---------------5----------------|5---------------5----------------|

            
            
Suggest correction
Creating personal tab
Creating personal tab
You can edit any tab online and save it as your Personal.

You can edit, replace or remove any tab part or add personal notes – all changes will be seen only by you.

Personal tabs can be accessed anytime from any device, even offline.
Learn more »
Give kudos to tab author, rate the tab!
1 2 3 4 5
comments
print report bad tab
guest
You may want to rate the tab now too:
select rating
Wanna post a correction for this tab? Suggest correction