Oops, an error
Loading. Please wait.

Mary Had A Little Lamb Bass Tab

31 views 6 this week
no commentswrite comment
1 2 3 4 5
3 more votes to show rating
add to favorites
launch autoscroll
font size
0
reset
guitar tuner
Autoscroll
slow
fast
+/-
esc
set tempo
stop
Help us to improve Ultimate-Guitar.com Take our survey!
×
Verse 1 :
G|---------------------------------|---------------------------------|
D|---------------------------------|---------------------------------|
A|---------------------------------|------------0-----------2--------|
E|3--------------------------------|3--------------------------------|

G|---------------------------------|---------------------------------|
D|---------------------------------|---------------------------------|
A|3-----------2-----------0--------|------------------------0---2----|
E|---------------------------------|3-----------3--------------------|

G|---------------------------------|---------------------------------|
D|---------------------------------|---------------------------------|
A|3-----------3---2----------------|---------------------------------|
E|---------------------------------|0---0-------0--------------------|

G|---------------------------------|---------------------------------|
D|---------------------------------|---------------------------------|
A|------------5--------------------|------------------------0---2----|
E|5--------------------------------|3-------------------3------------|

Chorus : 
G|---------------------------------|---------------------------------|
D|-----------------------5---------|------------------------4--------|
A|3------------------3/5------5----|2-----------2-------4/6-----4----|
E|---------------------------------|---------------------------------|

G|---------------------------------|---------------------------------|
D|-----------------------5---------|---------------------------------|
A|------------5------5/7-----------|--------------------0---2--------|
E|5--------------------------------|3-----------3--------------------|

G|---------------------------------|---------------------------------|
D|-----------------------5---------|------------------------4--------|
A|3-----------3------3/5------5----|2-----------2-------4/6-----4----|
E|---------------------------------|---------------------------------|

G|---------------------------------|---------------------------------|
D|------------7--------------------|5-----------5--------------------|
A|0---------------5-----------5----|---------------------------------|
E|---------------------------------|---------------------------------|

Interlude :
G|---------------------------------|---------------------------------|
D|------------------------0---3----|5-----------5--------------------|
A|6--------------------------------|---------------------------------|
E|---------------------------------|---------------------------------|

G|---------------------------------|
D|------------------------0---3----|
A|6--------------------------------|
E|---------------------------------|

Verse 2 :
G|---------------------------------|---------------------------------|
D|5-----------5--------------------|5--------------------------------|
A|---------------------------------|------------0-----------2--------|
E|---------------------------------|---------------------------------|

G|---------------------------------|---------------------------------|
D|---------------------------------|---------------------------------|
A|3-----------2-----------0--------|------------------------0---2----|
E|---------------------------------|3-----------3-----3-3------------|

G|---------------------------------|---------------------------------|
D|---------------------------------|---------------------------------|
A|3-----------3---2----------------|---------------------------------|
E|---------------------------------|0---0-------0-------3---5--------|

G|---------------------------------|---------------------------------|
D|----------------------------4----|5--------------------------------|
A|0-----------5-----------5--------|------------------------0---2----|
E|---------------------------------|--------------------3------------|

Chorus : 
G|---------------------------------|---------------------------------|
D|-----------------------5---------|------------------------4--------|
A|3-----------3------5/7------5----|2-----------2-------4/6-----4----|
E|---------------------------------|---------------------------------|

G|---------------------------------|---------------------------------|
D|-----------------------5---------|---------------------------------|
A|------------5------5/7-----------|--------------------0---2--------|
E|5--------------------------------|3-----------3--------------------|

G|---------------------------------|---------------------------------|
D|-----------------------5---------|------------------------4--------|
A|3-----------3------5/7------5----|2-----------2-------4/6-----4----|
E|---------------------------------|---------------------------------|

G|---------------------------------|---------------------------------|
D|-----------------------5---------|5-----------5--------------------|
A|------------5------5/7-----------|---------------------------------|
E|5--------------------------------|---------------------------------|

Interlude :
G|---------------------------------|---------------------------------|
D|------------------------0---3----|5-----------5--------------------|
A|6--------------------------------|---------------------------------|
E|---------------------------------|---------------------------------|

G|---------------------------------|
D|------------------------0---3----|
A|6--------------------------------|
E|---------------------------------|

Verse 3 :
G|---------------------------------|---------------------------------|
D|5-----------5--------------------|---------------------------------|
A|---------------------------------|------------0-----------2--------|
E|---------------------------------|3--------------------------------|

G|---------------------------------|---------------------------------|
D|---------------------------------|---------------------------------|
A|3-----------2-----------0--------|------------------------0---2----|
E|---------------------------------|3-----------3--------------------|

G|---------------------------------|---------------------------------|
D|---------------------------------|---------------------------------|
A|3-----------3---2----------------|---------------------------------|
E|---------------------------------|0---0-------0-------7------------|

G|---------------------------------|---------------------------------|
D|----------------------------4----|5--------------------------------|
A|0-----------5-----------5--------|------------------------0---2----|
E|---------------------------------|--------------------3------------|

Chorus : 
G|---------------------------------|---------------------------------|
D|-----------------------5---------|------------------------4--------|
A|3-----------3------3/5------5----|2-----------2-------4/6-----4----|
E|---------------------------------|---------------------------------|

G|---------------------------------|---------------------------------|
D|-----------------------5---------|---------------------------------|
A|------------5------5/7-----------|--------------------0---2--------|
E|5--------------------------------|3-----------3--------------------|

G|---------------------------------|---------------------------------|
D|-----------------------5---------|------------5---3---0------------|
A|3-----------3------5/7------5----|2---------------------------5----|
E|---------------------------------|---------------------------------|

G|---------------------------------|---------------------------------|
D|-----------------------5---------|5-----------5--------------------|
A|0-----------5------5/7-----------|---------------------------------|
E|---------------------------------|---------------------------------|

Interlude :
G|---------------------------------|---------------------------------|
D|------------------------0---3----|5-----------5--------------------|
A|6--------------------------------|---------------------------------|
E|---------------------------------|---------------------------------|

G|---------------------------------|
D|---------------------------------|
A|6--------------------------------|
E|---------------------------------|

Verse 4 :
G|---------------------------------|---------------------------------|
D|---------------------------------|---------------------------------|
A|---------------------------------|------------1-----------3--------|
E|4-----------4--------------------|4--------------------------------|

G|---------------------------------|---------------------------------|
D|---------------------------------|------------6-6------------------|
A|4-----------3-----------1--------|------------------------1---3----|
E|---------------------------------|4--------------------------------|

G|---------------------------------|---------------------------------|
D|---------------------------------|---------------------------------|
A|4---------------3----------------|---------------------------------|
E|---------------------------------|----------------0----------------|

G|---------------------------------|---------------------------------|
D|---------------------------------|6---6---6---6---6---6---6---6----|
A|---------------------------------|---------------------------------|
E|5--------------------------------|---------------------------------|

Chorus :
G|---------------------------------|---------------------------------|
D|-----------------------6---------|------------------------5--------|
A|4-----------4------4/6------6----|3-----------3-------5/7-----5----|
E|---------------------------------|---------------------------------|

G|---------------------------------|---------------------------------|
D|-----------------------6---------|---------------------------------|
A|------------6------6/8-----------|--------------------1---3--------|
E|6--------------------------------|4-----------4--------------------|

G|---------------------------------|---------------------------------|
D|-----------------------6---------|------------3-----------3---1----|
A|4-----------4------6/8------6----|3--------------------------------|
E|---------------------------------|---------------------------------|

G|-----------------------1---------|---------------------------------|
D|------------1------1/3-----------|6--------------------------------|
A|1--------------------------------|------------4--------------------|
E|---------------------------------|---------------------------------|

G|---------------------------------|---------------------------------|
D|4--------------------------------|2--------------------------------|
A|------------2--------------------|------------0--------------------|
E|---------------------------------|---------------------------------|

G|---------------------------------|---------------------------------|
D|---------------------------------|---------------------------------|
A|---------------------------------|---------------------------------|
E|4--------------------------------|---------------------------------|
Suggest correction
Give kudos to tab author, rate the tab!
1 2 3 4 5
comments
print report bad tab
guest
You may want to rate the tab now too:
select rating
Wanna post a correction for this tab? Suggest correction