Oops, an error
Loading. Please wait.

Maybe Im Amazed Tab

version 6
version 6

Whole song

Interactive

1,204 views 6 this week
1 commentread comment
1 2 3 4 5
please rate
add to favorites
launch autoscroll
font size
0
reset
how to read this tab
guitar tuner
Autoscroll
slow
fast
+/-
esc
set tempo
stop
Help us to improve Ultimate-Guitar.com Take our survey!
×
Author
Difficulty
novice
E|------------------------------------------------------|
B|----9-11-9-11b--9-------------------------------------|
G|--10-------------10--8--12-13-12-10-------------------|
D|------------------------------------------------------|
A|------------------------------------------------------|
E|------------------------------------------------------|

E|------------------------------------------------------|
B|----9-11-9-11b--9-------9-8---------------------------|
G|--10-------------10--8------8-------------------------|
D|------------------------------------------------------|
A|------------------------------------------------------|
E|------------------------------------------------------|

E|-------------------------------------------------------------------------|
B|----9-11-9-11b--9--------------------------------------------------------|
G|--10-------------10--8--12-13-12-10--10-11-10-8--8-9-8-6-----------------|
D|-------------------------------------------------------------------------|
A|-------------------------------------------------------------------------|
E|-------------------------------------------------------------------------|

Second Solo

E|----------------------------------------------------------|
B|----9-11-9-11b--9-----------------------------------------|
G|--10-------------10--8--12-13-12-10-----------------------|
D|----------------------------------------------------------|
A|----------------------------------------------------------|
E|----------------------------------------------------------|

E|----------------------------------------------------------------|
B|----9h11p9-11b--9-------9-8-----9p8---9p8-----------------------|
G|--10-------------10--8------8-------8-----8/10------------------|
D|----------------------------------------------------------------|
A|----------------------------------------------------------------|
E|----------------------------------------------------------------|

E|-------------------------------------------------------------------|
B|----9-11-9-11b--9--------------------------------------------------|
G|--10-------------10--8--12-13-12-10--10-11-10-8--8-9-8-6-----------|
D|-------------------------------------------------------------------|
A|-------------------------------------------------------------------|
E|-------------------------------------------------------------------|
Suggest correction
Give kudos to tab author, rate the tab!
1 2 3 4 5
comments
print report bad tab
1 comment total.
0 reply
LanceGold 91 wrote on September 14 2012, 10:41 am


E|------------------------------------------------------|
B|----9-11-9-11b--9-------------------------------------|
G|--10-------------10--8--12-13-12-10-------------------|
D|------------------------------------------------------|
A|------------------------------------------------------|
E|------------------------------------------------------|

E|------------------------------------------------------|
B|----9-11-9-11b--9-------9-8---------------------------|
G|--10-------------10--8------8-------------------------|
D|------------------------------------------------------|
A|------------------------------------------------------|
E|------------------------------------------------------|

E|-------------------------------------------------------------------------|
B|----9-11-9-11b--9--------------------------------------------------------|
G|--10-------------10--8--12-13-12-10--10-11-10-8--8-9-8-6-----------------|
D|-------------------------------------------------------------------------|
A|-------------------------------------------------------------------------|
E|-------------------------------------------------------------------------|

Second Solo

E|----------------------------------------------------------|
B|----9-11-9-11b--9-----------------------------------------|
G|--10-------------10--8--12-13-12-10-----------------------|
D|----------------------------------------------------------|
A|----------------------------------------------------------|
E|----------------------------------------------------------|

E|----------------------------------------------------------------|
B|----9h11p9-11b--9-------9-8-----9p8---9p8-----------------------|
G|--10-------------10--8------8-------8-----8/10------------------|
D|----------------------------------------------------------------|
A|----------------------------------------------------------------|
E|----------------------------------------------------------------|

E|-------------------------------------------------------------------|
B|----9-11-9-11b--9--------------------------------------------------|
G|--10-------------10--8--12-13-12-10--10-11-10-8--8-9-8-6-----------|
D|-------------------------------------------------------------------|
A|-------------------------------------------------------------------|
E|-------------------------------------------------------------------|

guest
You may want to rate the tab now too:
select rating
Please do not post tabs as comments. Select "correction" instead!