Oops, an error
Loading. Please wait.

Momma Miss America bass

4,505 views 15 this week
1 commentread comment
1 2 3 4 5
2 more votes to show rating
add to favorites
×
Save as Personal and add changes to this tab that will be seen only by you. Learn more ›
×
You can save this tab as Personal to edit and correct it or add notes. All changes will be seen only by you. Learn more »
launch autoscroll
font size
0
reset
guitar tuner
edit
Autoscroll
slow
fast
+/-
esc
set tempo
stop
Author
            -------------------------------------------------

                   PAUL McCARTNEY - MOMMA MISS AMERICA
                              Paul McCartney
                 From McCARTNEY album, released on 1970.

            -------------------------------------------------





                                   x   X   X   X   X x X   X x X   X
  G|---------------------------------|---------------------------------|
  D|---------------------------------|---------------------------------|
  A|---------------------------------|---------------------------------|
  E|---------------------------------|---------------------------------|




     00:09

  G|---------------------------------|---------------------------------|
  D|-----7-------5-------7-------5---|-----7-------5-------7-------5---|
  A|-0-------5/7-----0-------5/7-----|-0-------5/7-----0-------5/7-----|
  E|---------------------------------|---------------------------------|





  G|---------------------------------|---------------------------------|
  D|-----7-------5-------7-------5---|-----7-------5-------7-------5---|
  A|-0-------5/7-----0-------5/7-----|-0-------5/7-----0-------5/7-----|
  E|---------------------------------|---------------------------------|





  G|-----7-------5-------7-------5---|-----7-------5-------7-------5---|
  D|---------5/7-------------5/7-----|---------5/7-------------5/7-----|
  A|-5---------------5---------------|-5---------------5---------------|
  E|---------------------------------|---------------------------------|





  G|---------------------------------|---------------------------------|
  D|-----7-------5-------7-------5---|-----7-------5-------7-------5---|
  A|-0-------5/7-----0-------5/7-----|-0-------5/7-----0-------5/7-----|
  E|---------------------------------|---------------------------------|





  G|-----9-------7-------9-------7---|-----9-------7-------7-------7---|
  D|---------7/9-------------7/9-----|---------7/9-----7-9-----7-9-----|
  A|-7---------------7---------------|-7-------------------------------|
  E|---------------------------------|---------------------------------|





  G|---------------------------------|---------------------------------|
  D|-----7-------5-------7-------5---|-----7-------5-------7-------5---|
  A|-0-------5/7-----0-------5/7-----|-0-------5/7-----0-------5/7-----|
  E|---------------------------------|---------------------------------|




     x   x   x   x   x   x   x   x     x   x   x   x   X X   X   X X
  G|---------------------------------|---------------------------------|
  D|-7---7---------------------------|---------------------------------|
  A|---------------------------------|---------------------------------|
  E|---------------------------------|---------------------------------|




     00:45

  G|---------------------------------|---------------------------------|
  D|-----7-------5-------7-------5---|-----7-------5-------7-------5---|
  A|-0-------5/7-----0-------5/7-----|-0-------5/7-----0-------5/7-----|
  E|---------------------------------|---------------------------------|





  G|---------------------------------|---------------------------------|
  D|-----7-------5-------7-------5---|-----7-------5-------7-------5---|
  A|-0-------5/7-----0-------5/7-----|-0-------5/7-----0-------5/7-----|
  E|---------------------------------|---------------------------------|





  G|-----7-------5-------7-------5---|-----7-------5-------7-------5---|
  D|---------5/7-------------5/7-----|---------5/7-------------5/7-----|
  A|-5---------------5---------------|-5---------------5---------------|
  E|---------------------------------|---------------------------------|





  G|---------------------------------|---------------------------------|
  D|-----7-------5-------7-------5---|-----7-------5-------7-------5---|
  A|-0-------5/7-----0-------5/7-----|-0-------5/7-----0-------5/7-----|
  E|---------------------------------|---------------------------------|





  G|-----9-------7-------9-------7---|-----9-------7-------7-------7---|
  D|---------7/9-------------7/9-----|---------7/9-----7/9-----7/9-----|
  A|-7---------------7---------------|-7-------------------------------|
  E|---------------------------------|---------------------------------|





  G|---------------------------------|---------------------------------|
  D|-----7-------5-------7-------5---|-----7-------5-------7-------5---|
  A|-0-------5/7-----0-------5/7-----|-0-------5/7-----0-------5/7-----|
  E|---------------------------------|---------------------------------|




     01:15

  G|---------------------------------|---------------------------------|
  D|-----7-------5-------7-------5---|-----7-------5-------7-------5---|
  A|-0-------5/7-----0-------5/7-----|-0-------5/7-----0-------5/7-----|
  E|---------------------------------|---------------------------------|





  G|---------------------------------|---------------------------------|
  D|-----7-------5-------7-------5---|-----7-------5---7---5-----------|
  A|-0-------5/7-----0-------5/7-----|-0-------5/7-------------8---7---|
  E|---------------------------------|---------------------------------|





  G|-----7-------5-------7-------5---|-----7-------5-------5-------5---|
  D|---------5/7-------------5/7-----|---------5/7-----5-7-----5-7-----|
  A|-5---------------5---------------|-5-------------------------------|
  E|---------------------------------|---------------------------------|





  G|---------------------------------|---------------------------------|
  D|-----7-------5-------7-------5---|-----7-------5-------7-------5---|
  A|-0-------5/7-----0-------5/7-----|-0-------5-7-----0-------5/7-----|
  E|---------------------------------|---------------------------------|





  G|-----9-------7-------9-------7---|-----7-------7-------7-------7---|
  D|---------7/9-------------7/9-----|-7-9-----7-9-----7-9-----7-9-----|
  A|-7---------------7---------------|---------------------------------|
  E|---------------------------------|---------------------------------|





  G|---------------------------------|---------------------------------|
  D|-----7-------5-------7-------5---|-----7-------5-----------5---6---|
  A|-0-------5/7-----0-------5/7-----|-0-------5/7-----7---9-----------|
  E|---------------------------------|---------------------------------|




     01:45

  G|---------------------------------|---------------------------------|
  D|-7---7-------5---7---7-------5---|-7---7--------5--7---7-------5---|
  A|---------7---------------7-------|---------7-5-7-----------7-------|
  E|---------------------------------|---------------------------------|





  G|---------------------------------|---------------------------------|
  D|-7---7-------5---7---7---------5-|-7-----5-7-----5-7-----5-7-------|
  A|---------7---------------7-5-7---|-----7-------7-------7-----------|
  E|---------------------------------|---------------------------------|




                               x X     X     X x
  G|---------------------------------|-----------------|
  D|-7-------------------------------|-----------------|
  A|---------------------------------|-----------------|
  E|---------------------------------|-----------------|




     x   x   X       x   x   X         x   x   X       x   x   X
  G|---------------------------------|---------------------------------|
  D|---------------------------------|-----------------------------4---|
  A|---------------------------------|---------------------5---7-------|
  E|---------------------------------|---------------------------------|




     02:04

  G|---------------------------------|---------------------------------|
  D|-5-------------------------------|-5---5-----------------------4---|
  A|---------------------------------|---------------------5---7-------|
  E|---------------------------------|---------------------------------|





  G|---------------------------------|---------------------------------|
  D|-5-------------------------------|-5---5---------------------------|
  A|---------------------------------|-------------------------0---2---|
  E|---------------------------------|---------------------3-----------|





  G|---------------------------------|-5---5---------------------------|
  D|---------------------------------|-----------------------------4---|
  A|-3-------------------------------|---------------------5---7-------|
  E|---------------------------------|---------------------------------|





  G|---------------------------------|/12121212121212121212121212--12\-|
  D|-5-------------------------------|---------------------------------|
  A|---------------------------------|---------------------------------|
  E|---------------------------------|---------------------------------|





  G|---------------------------------|---------------------------------|
  D|---------------------------------|-----------------------------4---|
  A|-5---5---------------------------|-5---5-------5---7---5---7-------|
  E|---------------------------------|---------------------------------|





  G|---------------------------------|---------------------------------|
  D|-5---5---------------------------|-----5-----------------------4---|
  A|-------------------------------5-|-7-------7---5-------5---7-------|
  E|---------------------------------|---------------------------------|




     02:36

  G|---------------------------------|---------------------------------|
  D|-5---5---------------------------|-5---5-----------------------0---|
  A|---------------------------------|---------------------------------|
  E|---------------------------------|---------------------------------|





  G|---------------------------------|---------------------------------|
  D|-5---5---------------------------|-5-----5-4-----------------------|
  A|---------------------------------|-----------------7-----7-5-------|
  E|---------------------------------|---------------------------------|





  G|---------------------------------|---------------------------------|
  D|---------------------------------|-----------------------------4---|
  A|-3---3---------------------------|-3---3-------------------7-------|
  E|-----------------------------3---|---------------------------------|





  G|---------------------------------|---------------------------------|
  D|-5---5-----------------------0---|-5---5---------------------------|
  A|---------------------------------|---------------------3---5---3---|
  E|---------------------------------|---------------------------------|





  G|---------------------------------|---------------------------------|
  D|---------------------------------|-----------------4-------5-------|
  A|-5---5-------5---5---5-------0---|-5---5---7---5-------------------|
  E|---------------------------------|---------------------------------|





  G|---------------------------------|---------------------------------|
  D|-5-----------5-5-5---5-----------|-5-------------------------------|
  A|---------------------------------|---------------------------------|
  E|---------------------------------|---------------------------------|





  G|-----------------------------12\-|
  D|---------------------------------|
  A|---------------------------------|
  E|---------------------------------|




     03:11

  G|---------------------------------|---------------------------------|
  D|-5---5---5---5---5---5---5---5---|-5---5---5---5---5---5---5---5-0-|
  A|---------------------------------|---------------------------------|
  E|---------------------------------|---------------------------------|





  G|---------------------------------|---------------------------------|
  D|-5---5---5---5---5---5---5---5-0-|-5---5---5---5---5---5---5---5---|
  A|---------------------------------|---------------------------------|
  E|---------------------------------|---------------------------------|





  G|---------------------------------|---------------------------------|
  D|---------------------------------|---------------------------------|
  A|-3---3-------3---2---2-------2---|-0---0-------0-------------------|
  E|---------------------------------|-----------------3---3-------3---|





  G|---------------------------------|---------------------------------|
  D|-----------------------------4---|-5---5---5---5---5---5-----------|
  A|---------------------2---5-------|-------------------------5---3---|
  E|-3---3-------3---3---------------|---------------------------------|





  G|---------------------------------|---------------------------------|
  D|---------------------------------|-----3---3---3---3--/7---7\------|
  A|-5---5---5---5---5---5---5---5---|-5-------------------------------|
  E|---------------------------------|---------------------------------|





  G|---------------------------------|---------------------------------|
  D|-5---5---5---5---5---5---5---5---|-5---5---5---5---5---5---5---5---|
  A|---------------------------------|---------------------------------|
  E|---------------------------------|---------------------------------|





  G|---------------------------------|---------------------------------|
  D|/17--17--17--17--17--17--17--17--|-17--17--17--17--17--17--17--17--|
  A|---------------------------------|---------------------------------|
  E|---------------------------------|---------------------------------|





  G|---------------------------------|---------------------------------|
  D|-17--17--17--17--17--17--17--17--|-17--17--17--17--17--17--17--17\-|
  A|---------------------------------|---------------------------------|
  E|---------------------------------|---------------------------------|





  G|---------------------------------|---------------------------------|
  D|-5---5---4---4-------------------|---------------------------------|
  A|-----------------7---7---6---6---|-5-------3-------2-------0-------|
  E|---------------------------------|---------------------------------|





  G|---------------------------------|---------------------------------|
  D|---------------------------------|---------------------------------|
  A|---------------------------------|---------------------------------|
  E|-3-------------------------------|---------------------------------|

            
            
Suggest correction
Creating personal tab
Creating personal tab
You can edit any tab online and save it as your Personal.

You can edit, replace or remove any tab part or add personal notes – all changes will be seen only by you.

Personal tabs can be accessed anytime from any device, even offline.
Learn more »
Give kudos to tab author, rate the tab!
1 2 3 4 5
comments
print report bad tab
1 comment total.
+1 reply
SixOClockBoos 277 Mar 19, 2016 01:52 PM

Thanks for this. Sounds really great.

guest
You may want to rate the tab now too:
select rating
Wanna post a correction for this tab? Suggest correction