Oops, an error
Loading. Please wait.

Monkberry Moon Delight Bass Tab

version 1
version 1

Whole song

Interactive

31 views 3 this week
no commentswrite comment
1 2 3 4 5
3 more votes to show rating
add to favorites
launch autoscroll
font size
0
reset
guitar tuner
Autoscroll
slow
fast
+/-
esc
set tempo
stop
Help us to improve Ultimate-Guitar.com Take our survey!
×
Author
Difficulty
Intro :
G|---------------------------------|---------------------------------|
D|---------------------------------|---------------------------------|
A|3---------------3----------------|3---------------3----------------|
E|--------3---------------3--------|--------3---------------3--------|

Verse 1 :
G|---------------------------------|---------------------------------|
D|---------------------------------|---------------------------------|
A|3---------------3----------------|3---------------3----------------|
E|--------3---------------3--------|--------3---------------3--------|

G|---------------------------------|---------------------------------|
D|---------------------------------|---------------------------------|
A|3---------------3----------------|3---------------3----------------|
E|--------3---------------3--------|--------3---------------3--------|

G|---------------------------------|---------------------------------|
D|---------------------------------|---------------------------------|
A|--------5---------------5--------|--------5---------------5---4----|
E|3---------------3----------------|3---------------3----------------|

G|---------------------------------|---------------------------------|
D|---------------------------------|---------------------------------|
A|3---------------3----------------|3---------------3----------------|
E|--------3---------------3--------|--------3---------------3--------|

G|---------------------------------|---------------------------------|
D|---------------------------------|---------------------------------|
A|3---------------3----------------|--------5---------------5---3----|
E|--------3---------------3--------|3---------------3----------------|

G|---------------------------------|
D|--------------------3------------|
A|--------5---------------5---4----|
E|3---------------3----------------|

Chorus :
G|---------------------------------|---------------------------------|
D|---------------------------------|---------------------------------|
A|3---------------3----------------|--------3---------------3--------|
E|--------3---------------3---3----|1---------------1----------------|

G|---------------------------------|---------------------------------|
D|---------------------------------|---------------------------------|
A|--------3---------------3--------|3---------------3----------------|
E|1---------------1----------------|--------3---------------3--------|

G|---------------------------------|---------------------------------|
D|---------------------------------|---------------------------------|
A|3---------------3----------------|--------3---------------3--------|
E|--------3---------------3---3----|1---------------1----------------|

G|---------------------------------|---------------------------------|
D|---------------------------------|---------------------------------|
A|--------3---------------3--------|3-----------------------3--------|
E|1---------------1----------------|---------------------------------|

G|---------------------------------|---------------------------------|
D|---------------------------------|---------------------------------|
A|1-----------------------1--------|---------------------------------|
E|---------------------------------|5-----------------------5--------|

G|---------------------------------|
D|---------------------------------|
A|------------------------0---2----|
E|4--------------------------------|

Verse 2 :
G|---------------------------------|---------------------------------|
D|---------------------------------|---------------------------------|
A|3---------------3----------------|--------5---------------5--------|
E|--------3---------------3--------|3---------------3----------------|

G|---------------------------------|---------------------------------|
D|---------------------------------|---------------------------------|
A|--------5---------------5--------|3---------------3----------------|
E|3---------------3----------------|--------3---------------3--------|

G|---------------------------------|---------------------------------|
D|---------------------------------|---------------------------------|
A|3---------------3----------------|--------5---------------5--------|
E|--------3---------------3--------|3---------------3----------------|

G|---------------------------------|---------------------------------|
D|---------------------------------|---------------------------------|
A|--------5---------------5---4----|3---------------3----------------|
E|3---------------3----------------|--------3---------------3--------|

G|---------------------------------|---------------------------------|
D|---------------------------------|---------------------------------|
A|3---------------1----------------|---------------------------------|
E|---------------------------------|5---------------4----------------|

G|---------------------------------|---------------------------------|
D|---------------------------------|---------------------------------|
A|3--------------------------------|------------------------1--------|
E|---------------------------------|3---3-------3---3---3------------|

G|---------------------------------|---------------------------------|
D|---------------------------------|------------------------3---5----|
A|3---------------3----------------|--------3------------------------|
E|--------3---------------3---3----|1---------------1----------------|

Chorus :
G|---------------------------------|---------------------------------|
D|6---------------5----------------|---------------------------------|
A|--------6---------------5--------|3---------------3----------------|
E|---------------------------------|--------3---------------3---2----|

G|---------------------------------|---------------------------------|
D|---------------------------------|---------------------------------|
A|--------3---------------3--------|--------3-------------------2----|
E|1---------------1----------------|1---------------1---3---4--------|

G|---------------------------------|---------------------------------|
D|---------------------------------|---------------------------------|
A|3---------------3----------------|3---------------3----------------|
E|--------3---------------3--------|--------3---------------3---2----|

G|---------------------------------|---------------------------------|
D|---------------------------------|---------------------------------|
A|--------3---------------3--------|--------3-------------------2----|
E|1---------------1----------------|1---------------1---3---4--------|

G|---------------------------------|---------------------------------|
D|---------------------------------|---------------------------------|
A|3---------------3----------------|3---------------3----------------|
E|--------3---------------3--------|--------3---------------3--------|

G|---------------------------------|---------------------------------|
D|---------------------------------|---------------------------------|
A|3-----------------------3--------|1-----------------------1--------|
E|---------------------------------|---------------------------------|

G|---------------------------------|---------------------------------|
D|---------------------------------|---------------------------------|
A|---------------------------------|---------------------------------|
E|5-----------------------5--------|4--------------------------------|

Verse 3 :
G|---------------------------------|---------------------------------|
D|---------------------------------|---------------------------------|
A|3---------------3----------------|3---------------3----------------|
E|--------3---------------3--------|--------3---------------3--------|

G|---------------------------------|---------------------------------|
D|---------------------------------|---------------------------------|
A|3---------------3----------------|5---------------5----------------|
E|--------3---------------3--------|--------3---------------3--------|

G|---------------------------------|---------------------------------|
D|---------------------------------|---------------------------------|
A|5---------------5----------------|3---------------3----------------|
E|--------3---------------3--------|--------3---------------3--------|

G|---------------------------------|---------------------------------|
D|---------------------------------|---------------------------------|
A|3---------------3----------------|3---------------3----------------|
E|--------3---------------3--------|--------3---------------3--------|

G|---------------------------------|---------------------------------|
D|---------------------------------|---------------------------------|
A|5---------------5----------------|5---------------5-----------2----|
E|--------3---------------3--------|--------3---------------3--------|

Chorus :
G|---------------------------------|---------------------------------|
D|---------------------------------|---------------------------------|
A|3---------------3----------------|--------3---------------3--------|
E|--------3---------------3---2----|1---------------1----------------|

G|---------------------------------|---------------------------------|
D|---------------------------------|---------------------------------|
A|--------3---------------3--------|3---------------3----------------|
E|1---------------1----------------|--------3---------------3--------|

G|---------------------------------|---------------------------------|
D|---------------------------------|---------------------------------|
A|3---------------3----------------|--------3---------------3--------|
E|--------3---------------3---2----|1---------------1----------------|

G|---------------------------------|---------------------------------|
D|---------------------------------|---------------------------------|
A|--------3---------------3--------|3-----------------------3--------|
E|1---------------1----------------|---------------------------------|

G|---------------------------------|---------------------------------|
D|---------------------------------|---------------------------------|
A|1-----------------------1--------|---------------------------------|
E|---------------------------------|5-----------------------5--------|

G|---------------------------------|
D|---------------------------------|
A|------------------------0---2----|
E|4---4-------4---4----------------|

Chorus (fade-out)
G|---------------------------------|---------------------------------|
D|---------------------------------|---------------------------------|
A|3---------------3----------------|--------3---------------3--------|
E|--------3---------------3---2----|1---------------1----------------|

G|---------------------------------|---------------------------------|
D|---------------------------------|---------------------------------|
A|--------3-------------------2----|3---------------3----------------|
E|1---------------1---3---4--------|--------3---------------3--------|

4:47-4:48 changes before the end
G|---------------------------------|---------------------------------|
D|---------------------------------|---------------------------------|
A|3---------------3----------------|--------3---------------3--------|
E|--------3---------------3---2----|1---------------1----------------|

G|---------------------------------|---------------------------------|
D|--------------------0---1---3----|5---3---1---0--------------------|
A|------------2---3----------------|----------------3---1-------1----|
E|1---3---4------------------------|------------------------3--------|

G|----------------3---5---3--------|---------------------------------|
D|----1---3---5---------------5----|3---1---------------1---2---3----|
A|3--------------------------------|--------3---1---3----------------|
E|---------------------------------|---------------------------------|

G|---------------------------------|----------------3---5---3--------|
D|1--------------------------------|----1---3-4h5---------------5----|
A|----3---1-------------------1----|3--------------------------------|
E|------------3---1---3---4--------|---------------------------------|

G|-------------3-3-3--3-3-3--3-3-3-|---------------------------------|
D|3-------1--3---------------------|3---3---1---1--------------------|
A|----3----------------------------|----------------3---3------------|
E|---------------------------------|------------------------6---4----|

G|---------------------------------|
D|---------------------------------|
A|--------------------8--8h10-8----|
E|1---1---4---4-/-8----------------|

G|---------------------------------|---------------------------------|
D|---------------------------------|---------------------------------|
A|3---------------3----------------|3---------------3----------------|
E|--------3---------------3--------|--------3---------------3---2----|

G|---------------------------------|---------------------------------|
D|---------------------------------|---------------------------------|
A|--------3---------------3--------|--------3---------------3--------|
E|1---------------1----------------|1---------------1----------------|
Suggest correction
Give kudos to tab author, rate the tab!
1 2 3 4 5
comments
print report bad tab
guest
You may want to rate the tab now too:
select rating
Wanna post a correction for this tab? Suggest correction