Oops, an error
Loading. Please wait.

Mull Of Kintyre tab

version 2
version 2

Whole song

Interactive

10,768 views 6 this week
1 commentread comment
1 2 3 4 5
x 3
add to favorites
×
Save as Personal and add changes to this tab that will be seen only by you. Learn more ›
×
You can save this tab as Personal to edit and correct it or add notes. All changes will be seen only by you. Learn more »
launch autoscroll
font size
0
reset
how to read this tab
guitar tuner
edit
Autoscroll
slow
fast
+/-
esc
set tempo
stop
Author
         A           A           A           A           A           A
e|-----0---0-------0---0-------0---0-------0---0-------0---0-------0---0---|
B|-----2---2-------2---2-------2---2-------2---2-------2---2-------2---2---|
G|-----2---2-------2---2-------2---2-------2---2-------2---2-------2---2---|
D|-----2---2-------2---2-------2---2-------2---2-------2---2-------2---2---|
A|-0---0---0---0---0---0---0---0---0---0---0---0---0---0---0---0---0---0---|
E|-------------------------------------------------------------------------|
       ^   ^       ^   ^       ^   ^       ^   ^       ^   ^       ^   ^
The Whole song is played on this basis, before every chord a base note is played. So for 
the next part (D) you would play...

e|-----2---2-------2---2-----------------------------------------------------|
B|-----3---3-------3---3-----------------------------------------------------|
G|-----2---2-------2---2-----------------------------------------------------|
D|-0---0---0---0---0---0-----------------------------------------------------|
A|---------------------------------------------------------------------------|
E|---------------------------------------------------------------------------|
       ^   ^       ^   ^
The key is to listen as to how many times the chord is played, at the start
there are 4 A chords played to start then the singing begins -
then two A chords then 2 D's and so on.

 A                  D                        A
Mull of Kintyre,oh mist rolling in from the sea
             D                       A
my desire is always to be here , oh Mull of Kintyre.


1st Chorus:

 A
Far have I travelled and much have I seen
  D                      A
dark distant mountains with valleys of green.

Past painted deserts the sun sets on fire
       D                      A
as he carries me home to the Mull of Kintyre.


Refrain:

 A                  D                        A
Mull of Kintyre,oh mist rolling in from the sea
             D                       A
my desire is always to be here , oh Mull of Kintyre.

2nd Chorus:

 D                                          D7
Sweep trought the heather like deer in the glen
 G                     D
carry me back to the days I knew then.
                                   Break
Nights when we sang like a heavenly choir
        G                         A7         D
of the life and the times of the Mull of Kintyre.


Refrain:

 D                  G                        D
Mull of Kintyre,oh mist rolling in from the sea
             G                       A7         D
my desire is always to be here , oh Mull of Kintyre.


3rd Chorus:
  A
Smiles in the sunshine and tears in the rain
  D                            A
still takes me back where my  mem´ries remain.

Figurind amber grow higher then high
         D                    E         A
as they carry me back to the Mull of Kintyre.


Refrain:

 A                  D                        A
Mull of Kintyre,oh mist rolling in from the sea
             D                       A
my desire is always to be here , oh Mull of Kintyre.

Refrain:

 D                  G                        D
Mull of Kintyre,oh mist rolling in from the sea
             G                       A7         D
my desire is always to be here , oh Mull of Kintyre

This is my first tab so any comments would be appreciated, thanks.

e-mail Apocalypse-Now@hotmail.co.uk

            
            
Suggest correction
Creating personal tab
Creating personal tab
You can edit any tab online and save it as your Personal.

You can edit, replace or remove any tab part or add personal notes – all changes will be seen only by you.

Personal tabs can be accessed anytime from any device, even offline.
Learn more »
Give kudos to tab author, rate the tab!
1 2 3 4 5
comments
print report bad tab
1 comment total.
0 reply
saxmann 10 Sep 12, 2007 06:36 PM

you not have tabbed out an A chord.....yer 3's need to be 2's

guest
You may want to rate the tab now too:
select rating
Wanna post a correction for this tab? Suggest correction