Oops, an error
Loading. Please wait.

Nobody Knows Bass Tab

16 views 3 this week
no commentswrite comment
1 2 3 4 5
3 more votes to show rating
add to favorites
launch autoscroll
font size
0
reset
guitar tuner
Autoscroll
slow
fast
+/-
esc
set tempo
stop
Help us to improve Ultimate-Guitar.com Take our survey!
×
Intro :
G|---------------------------------|---------------------------------|
D|---------------------------------|---------------------------------|
A|---------------------------------|---------------------------------|
E|---------------------------------|---------------------------------|

G|---------------------------------|---------------------------------|
D|---------------------------------|---------------------------------|
A|---------------------------------|---------------------------------|
E|---------------------------------|---------------------------------|

G|---------------------------------|---------------------------------|
D|--------4-------7-------4--------|--------4-------7-------4--------|
A|5--------------------------------|5--------------------------------|
E|---------------------------------|---------------------------------|

G|---------------------------------|---------------------------------|
D|7-------4------------------------|---------------------------------|
A|----------------7-------4--------|--------4-------7-------4--------|
E|---------------------------------|5--------------------------------|

Verse 1 :
G|---------------------------------|---------------------------------|
D|---------------------------------|---------------------------------|
A|----------------2---2---5--------|7-------5-------4-------2--------|
E|0-------5------------------------|---------------------------------|

G|---------------------------------|---------------------------------|
D|---------------------------------|------------------------4--------|
A|--------4-------7-------4--------|--------4-------7----------------|
E|5--------------------------------|5--------------------------------|

G|---------------------------------|---------------------------------|
D|---------------------------------|------------------------4--------|
A|--------4-------7-------4--------|--------4-------7----------------|
E|5--------------------------------|5--------------------------------|

G|---------------------------------|---------------------------------|
D|---------------------------------|------------------------4--------|
A|--------4-------7-------4--------|--------4-------7----------------|
E|5--------------------------------|5--------------------------------|

G|---------------------------------|
D|7-------4------------------------|
A|----------------7-------4--------|
E|---------------------------------|

Chorus :
G|---------------------------------|---------------------------------|
D|--------4-------7-------4--------|--------4-------7-------4--------|
A|5--------------------------------|5--------------------------------|
E|---------------------------------|---------------------------------|

G|---------------------------------|---------------------------------|
D|7-------4------------------------|---------------------------------|
A|----------------7-------4--------|--------4-------7-------4--------|
E|---------------------------------|5--------------------------------|

G|---------------------------------|---------------------------------|
D|---------------------------------|---------------------------------|
A|7-------5-------4-------0--------|5---5---5-------4-------2--------|
E|---------------------------------|---------------------------------|

G|---------------------------------|---------------------------------|
D|------------------------4--------|---------------------------------|
A|--------4-------7----------------|--------4-------7-------4--------|
E|5--------------------------------|5--------------------------------|

Solo :
G|---------------------------------|---------------------------------|
D|------------------------4--------|7-------4------------------------|
A|--------4-------7----------------|----------------7-------4--------|
E|5--------------------------------|---------------------------------|

G|---------------------------------|---------------------------------|
D|------------------------4--------|---------------------------------|
A|--------4-------7----------------|--------4-------7-------4--------|
E|5--------------------------------|5--------------------------------|

G|---------------------------------|---------------------------------|
D|--------4-------7-------4---7----|--------4-------7-------4--------|
A|5--------------------------------|5--------------------------------|
E|---------------------------------|---------------------------------|

G|---------------------------------|---------------------------------|
D|7-------4------------------------|---------------------------------|
A|----------------7-------4--------|--------4-------7-------4--------|
E|---------------------------------|5--------------------------------|

G|---------------------------------|---------------------------------|
D|---------------------------------|---------------------------------|
A|------------------------4--------|7-------5-------4-------2--------|
E|0-------4-------7----------------|---------------------------------|

G|---------------------------------|---------------------------------|
D|------------------------4--------|7---7-----------5-------4--------|
A|--------4-------7----------------|--------5-------------------7----|
E|5--------------------------------|---------------------------------|

Verse 2 :
G|---------------------------------|---------------------------------|
D|------------------------4--------|7-------4------------------------|
A|--------4-------7----------------|----------------7-------4--------|
E|5--------------------------------|---------------------------------|

G|---------------------------------|---------------------------------|
D|------------------------4--------|---------------------------------|
A|--------4-------7----------------|--------4-------7-------4--------|
E|5--------------------------------|5--------------------------------|

G|---------------------------------|---------------------------------|
D|--------4-------7-------4---7----|--------4-------7-------4--------|
A|5--------------------------------|5--------------------------------|
E|---------------------------------|---------------------------------|

G|---------------------------------|---------------------------------|
D|7-------4------------------------|---------------------------------|
A|----------------7-------4--------|--------4-------5-------6--------|
E|---------------------------------|5--------------------------------|

G|---------------------------------|---------------------------------|
D|--------6-------9-------9--------|---------------------------------|
A|7---------------------------7----|5-------5-------5---5---3--------|
E|---------------------------------|---------------------------------|

G|---------------------------------|---------------------------------|
D|------------------------4--------|7-------4------------------------|
A|--------4-------7----------------|----------------7-------4---7----|
E|5--------------------------------|---------------------------------|

Solo : 
G|---------------------------------|---------------------------------|
D|---------------------------------|------------------------4--------|
A|--------4-------7-------4--------|--------4-------7----------------|
E|5--------------------------------|5--------------------------------|

G|---------------------------------|---------------------------------|
D|---------------------------------|------------------------4--------|
A|--------4-------7-------4--------|--------4-------7----------------|
E|5--------------------------------|5--------------------------------|

G|---------------------------------|---------------------------------|
D|---------------------------------|---------------------------------|
A|--------4-------7-------4--------|5-------5-------5-------5--------|
E|5--------------------------------|---------------------------------|

G|---------------------------------|---------------------------------|
D|---------------------------------|--------4---7--------------------|
A|5-----------------------5--------|7-----------------------4--------|
E|--------5-------5----------------|----------------5----------------|

G|-----------------|
D|--------4--------|
A|7-----------7----|
E|-----------------|

G|---------------------------------|---------------------------------|
D|---------------------------------|---------------------------------|
A|------------------------4--------|7-------5-------5-------4--------|
E|0-------4-------7----------------|---------------------------------|

G|---------------------------------|---------------------------------|
D|------------------------4---7----|------------------------4h5-7----|
A|--------4-------7----------------|--------4-------7----------------|
E|5--------------------------------|5--------------------------------|

Verse 3 :
G|---------------------------------|---------------------------------|
D|------------------------4--------|---------------------------------|
A|--------4-------7----------------|--------4-------7-------4--------|
E|5--------------------------------|5--------------------------------|

G|---------------------------------|--------4-------5-------6--------|
D|------------------------4--------|---------------------------------|
A|--------4-------7----------------|---------------------------------|
E|5--------------------------------|5---5----------------------------|

Chorus : 
G|---------------------------------|---------------------------------|
D|--------4-------7-------4---7----|--------4-------7-------4---7----|
A|5--------------------------------|5--------------------------------|
E|---------------------------------|---------------------------------|

G|---------------------------------|---------------------------------|
D|7-------4------------------------|---------------------------------|
A|----------------7-------4--------|--------4-------7-------4--------|
E|---------------------------------|5--------------------------------|

G|---------------------------------|---------------------------------|
D|---------------------------------|------------------------4---7----|
A|7-------5-------4---4---0--------|5-------5-------5----------------|
E|---------------------------------|---------------------------------|

G|---------------------------------|---------------------------------|
D|7-------4------------------------|---------------------------------|
A|----------------7-------4--------|--------4-------7-------4--------|
E|---------------------------------|5--------------------------------|

G|---------------------------------|---------------------------------|
D|---------------------------------|------------------------4---7----|
A|--------4-------7-------4--------|--------5-------7----------------|
E|5--------------------------------|5---5----------------------------|

G|---------------------------------|---------------------------------|
D|---------------------------------|-------/5-------4----------------|
A|--------4-------7-------4--------|------------------------7--------|
E|5--------------------------------|5---5----------------------------|

G|---------------------------------|---------------------------------|
D|--------4-------7-------4--------|--------4-------7-------4--------|
A|5--------------------------------|5--------------------------------|
E|---------------------------------|---------------------------------|

G|---------------------------------|---------------------------------|
D|7-------4------------------------|---------------------------------|
A|----------------7-------4--------|--------4-------7-------4--------|
E|---------------------------------|5--------------------------------|

G|---------------------------------|---------------------------------|
D|---------------------------------|---------------------------------|
A|7-------5-------4-------0--------|5--------------------------------|
E|---------------------------------|---------------------------------|

G|---------------------------------|---------------------------------|
D|---------------------------------|---------------------------------|
A|--------4-------4-------4--------|---------------------------------|
E|5--------------------------------|5--------------------------------|


*****************************************************
h = hammer on
*****************************************************
Suggest correction
Give kudos to tab author, rate the tab!
1 2 3 4 5
comments
print report bad tab
guest
You may want to rate the tab now too:
select rating
Wanna post a correction for this tab? Suggest correction