Oops, an error
Loading. Please wait.

Not Such A Bad Boy Bass Tab

16 views 3 this week
no commentswrite comment
1 2 3 4 5
3 more votes to show rating
add to favorites
launch autoscroll
font size
0
reset
guitar tuner
Autoscroll
slow
fast
+/-
esc
set tempo
stop
Help us to improve Ultimate-Guitar.com Take our survey!
×
Author
Difficulty
Intro :
G|---------------------------------|---------------------------------|
D|---------------------------------|---------------------------------|
A|---------------------------------|------------------------4---3----|
E|---------------------------------|2---2---2---2---2---2------------|

G|---------------------------------|---------------------------------|
D|----------------------------2----|---------------------------------|
A|2---2---2---2---2---2---4--------|------------------------4---3----|
E|---------------------------------|2---2---2---2---2---2------------|

G|---------------------------------|
D|---------------------------------|
A|2---2---2---2---2----------------|
E|---------------------------------|

Verse 1 :
G|---------------------------------|---------------------------------|
D|---------------------------------|----------------------------2----|
A|----------------------------4----|2---2---2---2---2---2---4--------|
E|2---2---2---2---2---2---2--------|---------------------------------|

G|---------------------------------|---------------------------------|
D|---------------------------------|---------------------------------|
A|---------------------------------|2---2---2---2---2---2------------|
E|2-------2---2---2---2---2---0----|------------------------4---3----|

G|---------------------------------|---------------------------------|
D|---------------------------------|----------------------------2----|
A|---------------------------------|2---2---2---2---2---2---4--------|
E|2---2---2---2---2---2---2---2----|---------------------------------|

G|---------------------------------|---------------------------------|
D|---------------------------------|---------------------------------|
A|---------------------------------|2-------2---2---2---2---2---2----|
E|2---2---2---2---2---2---2---2----|---------------------------------|

Pre-Chorus :
G|---------------------------------|---------------------------------|
D|---------------------------------|--------------------2---2---4----|
A|--------------------2---4---3----|0---0---0---3---4----------------|
E|0---0---0---3---4----------------|---------------------------------|

G|---------------------------------|---------------------------------|
D|---------------------------------|--------------------2---2---4----|
A|--------------------2---4---3----|0---0---0---3---4----------------|
E|0---0---0---3---4----------------|---------------------------------|

G|---------------------------------|---------------------------------|
D|---------------------------------|---------------------------------|
A|--------------------2---4---2----|0---0---4---5--------------------|
E|0---0---0---3---4----------------|---------------------------------|

G|---------------------------------|---------------------------------|
D|---------------------------------|---------------------------------|
A|2---2---2---2---2---2---2---2----|2---2---2---2---2---2---2---2----|
E|---------------------------------|---------------------------------|

Chorus :
G|---------------------------------|---------------------------------|
D|---------------------------------|---------------------------------|
A|----------------------------2----|----------------------------2----|
E|0-----------0-------3---4--------|0-----------0-------3---4--------|

G|---------------------------------|---------------------------------|
D|---------------------------------|---------------------------------|
A|--------------------3---4---4----|---------------------------------|
E|5---5---5---5---5----------------|5---5---5---5---5---5---5---5----|

G|---------------------------------|---------------------------------|
D|---------------------------------|---------------------------------|
A|----------------------------2----|----------------------------2----|
E|0-----------0-------3---4--------|0---0---0---0---0---3---4--------|

G|---------------------------------|---------------------------------|
D|---------------------------------|---------------------------------|
A|---------------------------------|---------------------------------|
E|5---5---5---5---5---5---5---5----|5---5----------------------------|

Verse 2 :
G|---------------------------------|---------------------------------|
D|---------------------------------|---------------------------------|
A|---------------------------------|2-------2---2---2----------------|
E|2---2---2-------2---2---2---2----|------------------------4---3----|

G|---------------------------------|---------------------------------|
D|---------------------------------|----------------------------2----|
A|---------------------------------|2---2---2---2---2---2---4--------|
E|2-------2---2---2---2---2---2----|---------------------------------|

G|---------------------------------|---------------------------------|
D|---------------------------------|---------------------------------|
A|---------------------------------|2-------2---2---2---2------------|
E|2-------2---2---2---2---2---2----|------------------------4---3----|

G|---------------------------------|---------------------------------|
D|---------------------------------|---------------------------------|
A|---------------------------------|2-------2---2---2---2---2---2----|
E|2---2---2---2---2---2---2---2----|---------------------------------|

Pre-Chorus :
G|---------------------------------|---------------------------------|
D|---------------------------------|------------------------2---4----|
A|---------------------------------|0---0---0---3---4---4------------|
E|0-------0-------0-------0--------|---------------------------------|

G|---------------------------------|---------------------------------|
D|---------------------------------|------------------------2---4----|
A|---------------------------------|0---0---0---3---4---4------------|
E|0-------0-------0-------0--------|---------------------------------|

G|---------------------------------|---------------------------------|
D|---------------------------------|---------------------------------|
A|---------------------------------|----------------5---5---5---5----|
E|0---0---0---0---0---0---3---4----|5---5---5---5--------------------|

G|---------------------------------|---------------------------------|
D|---------------------------------|---------------------------------|
A|2-------2---2---2-------2---2----|2---------------------/-11-------|
E|---------------------------------|---------------------------------|

Chorus :
G|---------------------------------|---------------------------------|
D|---------------------------------|---------------------------------|
A|----------------------------2----|----------------------------2----|
E|0---0---0---0---0---3---4--------|0---0---0---0---0---3---4--------|

G|---------------------------------|---------------------------------|
D|---------------------------------|---------------------------------|
A|---------------------------------|---------------------------------|
E|5-------5---5---5-------5---5----|5-------5---5---5-------5---5----|

G|---------------------------------|---------------------------------|
D|---------------------------------|---------------------------------|
A|----------------------------2----|----------------------------2----|
E|0---0---0---0---0---3---4--------|0---0---0---0---0---3---4--------|

G|---------------------------------|---------------------------------|
D|----------------------------2----|---------------------------------|
A|--------------------3---4--------|---------------------------------|
E|5-------5---5---5----------------|5---5-------5---5----------------|

Solo :
G|---------------------------------|---------------------------------|
D|---------------------------------|----------------------------2----|
A|------------------------4---3----|2-------2---2---2---2---4--------|
E|2-------2---2---2---2------------|---------------------------------|

G|---------------------------------|---------------------------------|
D|---------------------------------|------------------------2---2----|
A|------------------------4---3----|2---2---2---2---2---4------------|
E|2-------2---2---2---2------------|---------------------------------|

G|---------------------------------|---------------------------------|
D|---------------------------------|----------------------------2----|
A|------------------------4---3----|2---2---2---2---2---4---4--------|
E|2-------2---2---2---2------------|---------------------------------|

G|---------------------------------|---------------------------------|
D|---------------------------------|---------------------------------|
A|------------------------4---3----|2---2---2---2---2---2---2---2----|
E|2-------2---2---2---2------------|---------------------------------|

Pre-Chorus :
G|---------------------------------|---------------------------------|
D|---------------------------------|------------------------2---4----|
A|---------------------------------|0---0---0---3---4---4------------|
E|0-------0-------0-------0--------|---------------------------------|

G|---------------------------------|---------------------------------|
D|---------------------------------|------------------------2---4----|
A|---------------------------------|0---0---0---3---4---4------------|
E|0-------0-------0-------0--------|---------------------------------|

G|---------------------------------|---------------------------------|
D|---------------------------------|---------------------------------|
A|---------------------------------|----------------5----------------|
E|0-------0---0---0---0---0---0----|5--------------------------------|

G|---------------------------------|---------------------------------|
D|---------------------------------|---------------------------------|
A|2---2---2---2---2---2---2---2----|2---2---2---2---2---2---2--/11---|
E|---------------------------------|---------------------------------|

Chorus :
G|---------------------------------|---------------------------------|
D|---------------------------------|---------------------------------|
A|----------------------------2----|----------------------------2----|
E|0---0---0---0---0---3---4--------|0---0---0---0---0---3---4--------|

G|---------------------------------|---------------------------------|
D|---------------------------------|---------------------------------|
A|---------------------------------|---------------------------------|
E|5-------5---5---5-------5---5----|5-------5---5---5-----------10\--|

G|---------------------------------|---------------------------------|
D|---------------------------------|---------------------------------|
A|------------------------2---2----|----------------------------2----|
E|0---0---0---0---3---4------------|0---0---0---0---0---3---4--------|

G|---------------------------------|---------------------------------|
D|----------------------------2----|--------------------2---2---0----|
A|--------------------3---4--------|------------3---4----------------|
E|5-------5---5---5----------------|5---5----------------------------|

Verse 3 :
G|---------------------------------|---------------------------------|
D|---------------------------------|---------------------------------|
A|---------------------------------|2-------2---2---2----------------|
E|2---2---2---2---2---2---2---2----|------------------------4---3----|

G|---------------------------------|---------------------------------|
D|---------------------------------|----------------------------2----|
A|---------------------------------|2-------2---2---2---2---4--------|
E|2-------2---2---2---2---2---2----|---------------------------------|

G|---------------------------------|---------------------------------|
D|---------------------------------|---------------------------------|
A|---------------------------------|2-------2---2---2---2---2---2----|
E|2-------2---2---2---2---2---2----|---------------------------------|

G|---------------------------------|---------------------------------|
D|---------------------------------|---------------------------------|
A|---------------------------------|2-------2---2---2---2---2---2----|
E|2---2---2---2---2---2---2---2----|---------------------------------|

Pre-Chorus :
G|---------------------------------|---------------------------------|
D|---------------------------------|------------------------2---4----|
A|---------------------------------|0-------0-------3---4------------|
E|0-------0-------0-------0--------|---------------------------------|

G|---------------------------------|---------------------------------|
D|---------------------------------|------------------------2---4----|
A|---------------------------------|0---0---0---3---4---4------------|
E|0-------0-------0-------0--------|---------------------------------|

G|---------------------------------|---------------------------------|
D|---------------------------------|---------------------------------|
A|---------------------------------|----------------5-------5--------|
E|0-------0-------0-------0--------|5-------5------------------------|

G|---------------------------------|---------------------------------|
D|---------------------------------|---------------------------------|
A|2-------2---2---2---2---2---2----|2---2---2---2---2---2---2---2----|
E|---------------------------------|---------------------------------|

Chorus :
G|---------------------------------|---------------------------------|
D|---------------------------------|---------------------------------|
A|----------------------------2----|----------------------------2----|
E|0---0---0---0---0---3---4--------|0---0---0---0---0---3---4--------|

G|---------------------------------|---------------------------------|
D|---------------------------------|---------------------------------|
A|---------------------------------|---------------------------------|
E|5-------5---5---5-------5---5----|5-------5---5---5-----------10\--|

G|---------------------------------|---------------------------------|
D|---------------------------------|---------------------------------|
A|----------------------------2----|----------------------------2----|
E|0---0---0---0---0---3---4--------|0---0---0---0---0---3---4--------|

G|---------------------------------|---------------------------------|
D|----------------------------2----|--------------------2---2---2----|
A|--------------------3---4--------|------------3---4----------------|
E|5-------5---5---5----------------|---------------------------------|

G|---------------------------------|---------------------------------|
D|---------------------------------|---------------------------------|
A|----------------------------2----|----------------------------2----|
E|0-------0-------0---3---4--------|0-------0-------0---3---4--------|

G|---------------------------------|---------------------------------|
D|---------------------------------|------------2---2---2---2---2----|
A|0-------0---0---0-------0---0----|0---3---4------------------------|
E|---------------------------------|---------------------------------|

G|---------------------------------|---------------------------------|
D|---------------------------------|---------------------------------|
A|----------------------------2----|----------------------------2----|
E|0---0---0---0---0---3---4--------|0---0---0---0---0---3---4--------|

G|---------------------------------|---------------------------------|
D|----------------------------2----|---------------------------------|
A|--------------------3---4--------|----4---4---4---4---4------------|
E|5-------5---5---5----------------|---------------------------------|

G|---------------------------------|---------------------------------|
D|---------------------------------|---------------------------------|
A|---------------------------------|---------------------------------|
E|0--------------------------------|---------------------------------|
Suggest correction
Give kudos to tab author, rate the tab!
1 2 3 4 5
comments
print report bad tab
guest
You may want to rate the tab now too:
select rating
Wanna post a correction for this tab? Suggest correction