Oops, an error
Loading. Please wait.

Off The Ground Bass Tab

16 views 3 this week
no commentswrite comment
1 2 3 4 5
3 more votes to show rating
add to favorites
launch autoscroll
font size
0
reset
guitar tuner
Autoscroll
slow
fast
+/-
esc
set tempo
stop
Help us to improve Ultimate-Guitar.com Take our survey!
×
Author
Difficulty
Intro :
G|---------------------------------|---------------------------------|
D|---------------------------------|---------------------------------|
A|5---5-----------5-------5---2----|---------------------------------|
E|---------------------------------|0---------------0----------------|

G|---------------------------------|---------------------------------|
D|---------------------------------|---------------------------------|
A|3---3-----------3-------5--------|---------------------------------|
E|---------------------------------|3---3-------3---3-----------3----|

G|---------------------------------|
D|---------------------------------|
A|---------------------------------|
E|3---3-------3---3----------------|

Verse 1 :
G|---------------------------------|---------------------------------|
D|---------------------------------|---------------------------------|
A|----------------5-------3--------|3---3----------------------------|
E|3---3----------------------------|----------------3-------3---3----|

G|---------------------------------|---------------------------------|
D|---------------------------------|---------------------------------|
A|----------------5-------3--------|3---3-----------5-------0---2----|
E|3--------------------------------|---------------------------------|

G|---------------------------------|
D|---------------------------------|
A|----------------------------5----|
E|0---0-----------0----------------|

Chorus :
G|---------------------------------|---------------------------------|
D|---------------------------------|---------------------------------|
A|3---3-----------5-----------0----|7---7-------5---5----------------|
E|---------------------------------|---------------------------------|

G|---------------------------------|---------------------------------|
D|---------------------------------|---------------------------------|
A|3---3-----------5----------------|---------------------------------|
E|---------------------------------|3---3-------3---3----------------|

G|---------------------------------|
D|5--------------------------------|
A|---------------------------------|
E|----3-------3---3----------------|

Verse 2 :
G|---------------------------------|---------------------------------|
D|---------------------------------|---------------------------------|
A|----------------5-------3--------|3---3----------------------------|
E|3---3----------------------------|----------------3-------3---3----|

G|---------------------------------|---------------------------------|
D|---------------------------------|---------------------------------|
A|----------------5-------3--------|3---3-----------5-------0---2----|
E|3-----------7--------------------|---------------------------------|

G|---------------------------------|
D|---------------------------------|
A|----------------------------2----|
E|0---0-----------0-------3--------|

Chorus :
G|---------------------------------|---------------------------------|
D|---------------------------------|---------------------------------|
A|3---3-----------5----------------|7---7-------5--------------------|
E|---------------------------------|----------------------------2----|

G|---------------------------------|---------------------------------|
D|---------------------------------|---------------------------------|
A|3---3---3---3---5-7-5---5---5----|------------------------3---0----|
E|---------------------------------|3---3-------3---3----------------|

Bridge :
G|---------------------------------|---------------------------------|
D|---------------------------------|5--------------------------------|
A|5---5-----------5----------------|--------------------2---3---3----|
E|---------------------------------|----3----------------------------|

G|---------------------------------|---------------------------------|
D|---------------------------------|5--------------------------------|
A|5---5-----------5----------------|------------------------2--------|
E|---------------------------------|----3-------3---3----------------|

G|---------------------------------|---------------------------------|
D|---------------------------------|---------------------------------|
A|3---3-----------3-------3---5----|------------------0-2---3--------|
E|---------------------------------|3---3-----------3----------------|

G|---------------------------------|---------------------------------|
D|---------------------------------|5---5----------------------------|
A|5---5-------5---5----------------|---------------------------------|
E|---------------------------------|------------3---3----------------|

Solo :
G|---------------------------------|---------------------------------|
D|---------------------------------|---------------------------------|
A|5---5-----------5----------------|--------------------2-3-3---0----|
E|---------------------------------|3---3----------------------------|

G|---------------------------------|---------------------------------|
D|---------------------------------|--------------------5-7-5--------|
A|5---5-----------5-------5--------|---------------------------------|
E|---------------------------------|3---3-----------3----------------|

G|---------------------------------|---------------------------------|
D|---------------------------------|---------------------------------|
A|3---3-----------3-------3---5----|--------------------2-3-----0----|
E|---------------------------------|3---3----------------------------|

G|---------------------------------|---------------------------------|
D|---------------------------------|---------------------------------|
A|5---5-----------5----------------|---------------------------------|
E|----------------------------0----|3---3-------3---3-------3--------|

Verse 3 :
G|---------------------------------|---------------------------------|
D|---------------------------------|---------------------------------|
A|----------------5-------3--------|3---3----------------------------|
E|3---3----------------------------|----------------3----------------|

G|---------------------------------|---------------------------------|
D|---------------------------------|---------------------------------|
A|----------------5-------3--------|3---3-----------5-------0---2----|
E|3---3-------7--------------------|---------------------------------|

G|---------------------------------|
D|---------------------------------|
A|----------------------------2----|
E|0---0-----------0-------3--------|

Chorus :
G|---------------------------------|---------------------------------|
D|---------------------------------|---------------------------------|
A|3---3-----------5----------------|7---7-------5--------------------|
E|---------------------------------|----------------------------2----|

G|---------------------------------|---------------------------------|
D|-------------------------------/-|5---5-------5---5-------5--------|
A|3---------------5-7-5------------|---------------------------------|
E|---------------------------------|---------------------------------|

G|---------------------------------|
D|5---5-------5---5----------------|
A|------------------------3---0----|
E|---------------------------------|

Bridge :
G|---------------------------------|---------------------------------|
D|-----------------------------/---|5--------------------------------|
A|5---5-----------5----------------|--------------------2-3----------|
E|---------------------------------|----3-------------3--------------|

G|---------------------------------|---------------------------------|
D|-----------------------------4-/-|5--------------------------------|
A|5---5-----------5----------------|------------------------2--------|
E|---------------------------------|----3-------3---3----------------|

G|---------------------------------|---------------------------------|
D|---------------------------------|---------------------------------|
A|3---3-----------3-------3---5----|------------------1-2-3----------|
E|---------------------------------|3---3----------------------------|

G|---------------------------------|---------------------------------|
D|---------------------------------|---------------------------------|
A|5---5-------5---5----------------|----------------------------8----|
E|---------------------------------|3---3-------3---3----------------|

Interlude :
G|---------------------------------|---------------------------------|
D|---------------------------------|---------------------------------|
A|5---5-----------5----------------|------------------2-3------------|
E|---------------------------------|3---3-----------3----------------|

G|---------------------------------|---------------------------------|
D|---------------------------------|------------------/-7------------|
A|5---5-------5---5----------------|---------------------------------|
E|---------------------------------|3---3----------------------------|

Bridge :
G|---------------------------------|---------------------------------|
D|---------------------------------|---------------------------------|
A|3---3-----------3----------------|--------------------2-3----------|
E|---------------------------------|3---3-------3-----3--------------|

G|---------------------------------|---------------------------------|
D|---------------------------------|5-----------------------------4/-|
A|5---5-----------5----------------|---------------------------------|
E|---------------------------------|----3-------3---3----------------|

Outro :
G|---------------------------------|---------------------------------|
D|5---5-------5---5----------------|---------------------------------|
A|--------------------2-------3----|5---5-----------5-------------5--|
E|---------------------------------|--------------------------5-7----|

G|---------------------------------|---------------------------------|
D|---------------------------------|---------------------------------|
A|7---7-----------7-7-7---5---2----|3---3-----------3---3-------0----|
E|---------------------------------|---------------------------------|

Repeat until the end
G|---------------------------------|---------------------------------|
D|---------------------------------|---------------------------------|
A|---------------------------------|---------------------------------|
E|3---3-----------3----------------|3---3-----------3----------------|
Suggest correction
Give kudos to tab author, rate the tab!
1 2 3 4 5
comments
print report bad tab
guest
You may want to rate the tab now too:
select rating
Wanna post a correction for this tab? Suggest correction