Oops, an error
Loading. Please wait.

Old Siam Sir bass

version 1
version 1

Whole song

Interactive

190 views 9 this week
2 commentsread comments
1 2 3 4 5
2 more votes to show rating
add to favorites
×
Save as Personal and add changes to this tab that will be seen only by you. Learn more ›
×
You can save this tab as Personal to edit and correct it or add notes. All changes will be seen only by you. Learn more »
launch autoscroll
font size
0
reset
guitar tuner
edit
Autoscroll
slow
fast
+/-
esc
set tempo
stop
    Old Siam, Sir (Released as a single in the U.K. on June 1, 1979 reaching #35)

    0:00 (Intro)

  G|--------------------------14h16|-------------------------------|
  D|-------------------------------|-------------------------------|
  A|-------------------------------|------------------------2------|
  E|-------------------------------|--------------------3-5---3-5-0|


  G|-------------------------------|-------------------------------|
  D|-------------------------------|-------------------------------|
  A|----------------------------5-7|------------------------2------|
  E|0-------0-------0-------0------|0-------0-------0---3-5---3-5-0|


  G|-------------------------------|-------------------------------|
  D|-------------------------------|-------------------------------|
  A|----------------------------5-7|------------------------2------|
  E|0-------0-------0-------0------|0-------0-------0---3-5---3-5-0|
 

  G|-------------------------------|-------------------------------|
  D|-------------------------------|-------------------------------|
  A|----------------------------5-7|------------------------2------|
  E|0-------0-------0-------0------|0-------0-------0---3-5---3-5-0|

    0:26 (In a village of Old Siam, Sir...)

  G|-------------------------------|-------------------------------|
  D|-------------------------------|-------------------------------|
  A|--------7---------------7---5-7|--------7---------------7---5-7|
  E|0---------------0--------------|0---------------0-----0--------|
 

  G|-------------------------------|-------------------------------|
  D|-------------------------------|-------------------------------|
  A|--------7---------------7---5-7|--------7---------------2------|
  E|0---------------0--------------|0---------------0---3-5---3-5-0|
 
    0:39 (She waited 'round in Walthamstow...)

  G|-------------------------------|-------------------------------|
  D|-------------------------------|-------------------------------|
  A|------------7-------7-------5-7|----7-------5-7-----7-------5-7|
  E|0---------------0--------------|0---------------0--------------|
 

  G|-------------------------------|-------------------------------|
  D|-------------------------------|-------------------------------|
  A|----7-------5-7-----7-------5-7|----7-------5-7-----7---5-5-5-5|
  E|0---------------0--------------|0---------------0--------------|
 
    0:52 (In the village of Old East Ham...)

  G|-------------------------------|-------------------------------|
  D|-------------------------------|-------------------------------|
  A|--------7---------------7---5-7|--------7---------------2------|
  E|0---------------0-----0--------|0---------------0---3-5---3-5-0|
 

  G|-------------------------------|-------------------------------|
  D|-------------------------------|-------------------------------|
  A|--------7---------------7------|--------7---------------2------|
  E|0---------------0--------------|0---------------0---3-5---3-5-0|
 
    1:05 (Instrumental)

  G|-------------------------------|-------------------------------|
  D|-------------------------------|-------------------------------|
  A|-------------------------------|-------------------------------|
  E|5-------\-------17-------------|3-------\-------17-------------|


  G|-------------------------------|-------------------------------|
  D|-------------------------------|-------------------------------|
  A|-------------------------------|-------------------------------|
  E|2-------\--------17------------|3---------------4--------------|
 

  G|-------------------------------|-------------------------------|
  D|-------------------------------|-------------------------------|
  A|-------------------------------|-------------------------------|
  E|5-------\-------17-------------|3-------\-------17-------------|


  G|-------------------------------|-------------------------------|
  D|-------------------------------|-------------------------------|
  A|-------------------------------|-------------------------------|
  E|2-------\-------17-------------|3---------------4--------------|
 

  G|--------7---7---5--------------|--------7---7---5--------------|
  D|------7------------------------|------7------------------------|
  A|----5--------------------------|----5--------------------------|
  E|5-8----------------------------|5-8----------------------------|
 
  G|--------7---7---5--------------|--------7---7---5-----------7--|
  D|------7------------------------|------7------------------------|
  A|----5--------------------------|----5--------------------------|
  E|5-8----------------------------|5-8----------------------------|
 
    1:43 (Intro)

  G|9-------------------------14h16|-------------------------------|
  D|-------------------------------|-------------------------------|
  A|-------------------------------|------------------------2------|
  E|-------------------------------|--------------------3-5---3-5-0|

    1:50 (In a letter from Old Siam, Sir...)

  G|-------------------------------|-------------------------------|
  D|-------------------------------|-------------------------------|
  A|--------7---------------7---5-7|--------7---------------7---5-7|
  E|0---------------0--------------|0---------------0-----0--------|
 

  G|-------------------------------|-------------------------------|
  D|-------------------------------|-------------------------------|
  A|--------7---------------7------|--------7---------------2------|
  E|0---------------0--------------|0---------------0---3-5---3-5-0|
 
    2:03 (She waited 'round in Walthamstow...)

  G|-------------------------------|-------------------------------|
  D|-------------------------------|-------------------------------|
  A|----7-------5-7-----7-------5-7|----7-------5-7-----7----------|
  E|0---------------0--------------|0---------------0-----------5-0|


  G|-------------------------------|-------------------------------|
  D|-------------------------------|-------------------------------|
  A|----7-------5-7-----7-------5-7|----7-------5/0---------2------|
  E|0---------------0--------------|0---------------0-0-3-5---3-5-0|

    2:15 (When a relative told her man sir...)

  G|-------------------------------|-------------------------------|
  D|-------------------------------|-------------------------------|
  A|--------7---------------7------|--------7---------------2------|
  E|0---------------0--------------|0---------------0---3-5---3-5-0|
 

  G|-------------------------------|-------------------------------|
  D|-------------------------------|-------------------------------|
  A|--------7---------------7------|--------7-/-0------------------|
  E|0---------------0--------------|0------------------------------|
 
    2:28 (Instrumental)

  G|-------------------------------|-------------------------------|
  D|-------------------------------|-------------------------------|
  A|-------------------------------|-------------------------------|
  E|5-------\-------17-------------|3-------\-------17-------------|


  G|-------------------------------|-------------------------------|
  D|-------------------------------|-------------------------------|
  A|-------------------------------|-------------------------------|
  E|2-------\--------17------------|3---------------4--------------|
 

  G|-------------------------------|-------------------------------|
  D|-------------------------------|-------------------------------|
  A|-------------------------------|-------------------------------|
  E|5-------\-------17-------------|3-------\-------17-------------|


  G|-------------------------------|-------------------------------|
  D|-------------------------------|-------------------------------|
  A|-------------------------------|-------------------------------|
  E|2-------\-------17-------------|3---------------4--------------|
 

  G|--------7---7---5--------------|--------7---7---5-----------5/0|
  D|------7------------------------|------7------------------------|
  A|----5--------------------------|----5--------------------------|
  E|5-8----------------------------|5-8----------------------------|
 
  G|--------7---7---5--------------|--------7---7---5-----------7--|
  D|------7------------------------|------7------------------------|
  A|----5--------------------------|----5--------------------------|
  E|5-8----------------------------|5-8----------------------------|
 
    3:07 (Intro)

  G|9-------------------------14h16|-------------------------------|
  D|-------------------------------|-------------------------------|
  A|-------------------------------|------------------------2------|
  E|-------------------------------|--------------------3-5---3-5-0|

    3:13 (In a letter from Old Siam, Sir...)

  G|-------------------------------|-------------------------------|
  D|-------------------------------|-------------------------------|
  A|--------7---------------7---5-7|----7-------7-----------2------|
  E|0---------------0--------------|0-------0-------0---3-5---3-5-0|
 

  G|-------------------------------|-------------------------------|
  D|-------------------------------|-------------------------------|
  A|--------7---------------7------|--------7---------------2------|
  E|0---------------0--------------|0---------------0---3-5---3-5-0|

    3:26 (She waited 'round in Walthamstow...)

  G|-------------------------------|-------------------------------|
  D|-------------------------------|-------------------------------|
  A|----7-------5-7-----7-------5-7|----7-------5-7---------2------|
  E|0---------------0--------------|0---------------0---3-5---3-5-0|
 

  G|-------------------------------|-------------------------------|
  D|-------------------------------|-------------------------------|
  A|----7-------5-7-----7-------5-7|----7-------5-7---------2------|
  E|0---------------0--------------|0---------------0---3-5---3-5-0|
 

  G|-------------------------------|-------------------------------|
  D|-------------------------------|-------------------------------|
  A|----7-------5-7-----7-5---5-5-5|----7-------5-7-----7----------|
  E|0---------------0--------------|0---------------0--------------|
 

  G|-------------------------------|-------------------------------|
  D|-------------------------------|-------------------------------|
  A|--------7-7-7-7-7-7-7-7-7-7-7-7|7-7-7-7-7-7-7-7-7-7-7-7-7-7-7-7|
  E|0------------------------------|-------------------------------|

    3:52 (In a village of Old Siam, Sir...) [Fade]

  G|-------------------------------|-------------------------------|
  D|-------------------------------|-------------------------------|
  A|7-7-7-7-7-7-7-7-7-7-7-7-7-7-7-7|7-7-7-7-7-7-7-7-7-7-5----------|
  E|-------------------------------|--------------------------8-8-7|
 

  G|-------------------------------|-------------------------------|
  D|-------------------------------|-------------------------------|
  A|----7-------5-7-----7-------5/0|-----7------5-7---------2------|
  E|0---------------0--------------|0---------------0-0-3-5---3-5-0|

    4:04 (Walthamstow...)

  G|-------------------------------|-------------------------------|
  D|-------------------------------|-------------------------------|
  A|----7-------5-7-----7---5-5-5-5|-------------------------------|
  E|0---------------0--------------|-------------------------------|
 

            
            
Suggest correction
Creating personal tab
Creating personal tab
You can edit any tab online and save it as your Personal.

You can edit, replace or remove any tab part or add personal notes – all changes will be seen only by you.

Personal tabs can be accessed anytime from any device, even offline.
Learn more »
Give kudos to tab author, rate the tab!
1 2 3 4 5
comments
print report bad tab
2 comments total.
0 reply
Connak1023 10 Feb 19, 2016 10:23 AM

Thanks for posting this!

guest
You may want to rate the tab now too:
select rating
Wanna post a correction for this tab? Suggest correction