Oops, an error
Loading. Please wait.

On My Way To Work bass

31 views 1 this week
no commentswrite comment
1 2 3 4 5
3 more votes to show rating
add to favorites
×
Save as Personal and add changes to this tab that will be seen only by you. Learn more ›
×
You can save this tab as Personal to edit and correct it or add notes. All changes will be seen only by you. Learn more »
launch autoscroll
font size
0
reset
guitar tuner
edit
Autoscroll
slow
fast
+/-
esc
set tempo
stop
00:11
Chorus :
G|---------------------------------|----------------9----------------|
D|---------------------------------|10----------10--------------9----|
A|10--------------------------10---|---------------------------------|
E|---------------------------------|---------------------------------|

G|9-------------------9---7--------|5--------/--12-------------------|
D|---------------------------------|---------------------------------|
A|---------------------------------|----------------10------10--\----|
E|---------------------------------|---------------------------------|

Verse 1 :
G|---------------------------------|---------------------------------|
D|---------------------------------|---------------------------------|
A|3--------------------------------|---------------------------------|
E|----------------------------7----|5---------------------------5----|

G|---------------------------------|---------------------------------|
D|---------------------------------|---------------------------------|
A|---------------------------------|---------------------------------|
E|5-----------------------3--------|1---------------1----------------|

G|---------------------------------|---------------------------------|
D|------------------------4---5----|7-----------7--------------------|
A|---------------------------------|---------------------------------|
E|1--------------------------------|---------------------------------|

G|---------------------------------|------------------------7--------|
D|---------------------------------|----------------7-----------7----|
A|3--------------------------------|5--------------------------------|
E|----------------5----------------|---------------------------------|

G|7-------7------------------------|
D|------------7--------------------|
A|----------------5---\------------|
E|---------------------------------|

Chorus :
G|------------------------5--------|---------------------------------|
D|5-------------------5-------5----|---------------------------------|
A|---------------------------------|3-----------5---7----------------|
E|---------------------------------|---------------------------------|

G|---------------------------------|---------------------------------|
D|---------------------------------|----------------5----------------|
A|7-----------7---7-------5--------|3-----------5-----------7---5----|
E|---------------------------------|---------------------------------|

G|------------------------4--------|---------------------------------|
D|5---------------5----------------|------------0---2----------------|
A|---------------------------------|3-------3------------------------|
E|---------------------------------|---------------------------------|

G|---------------------------------|---------------------------------|
D|---------------------------------|---------------------------------|
A|7---------------7-------5--------|3-----------5--------------------|
E|---------------------------------|----------------3-------3--------|

Interlude :
G|---------------------------------|---------------------------------|
D|---------------------------------|---------------------------------|
A|---------------------------------|---------------------------------|
E|0-----------------------3---\----|0--------------------------------|

G|---------------------------------|---------------------------------|
D|---------------------------------|---------------------------------|
A|---------------------------------|---------------------------------|
E|5-------3-------0----------------|--------3---\---0----------------|

G|---------------------------------|---------------------------------|
D|---------------------------------|---------------------------------|
A|---------------------------------|---------------------------------|
E|----------------5-------3--------|0-----------------------3---\----|

Verse 2 :
G|---------------------------------|---------------------------------|
D|---------------------------------|7-----------7---7-------5--------|
A|3-----------3---3----------------|--------------------7-------7----|
E|---------------------------------|---------------------------------|

G|---------------------------------|---------------------------------|
D|7-----------7---7-------5--------|---------------------------------|
A|---------------------------------|8-----------8---8----------------|
E|---------------------------------|------------------------9---8----|

G|---------------------------------|---------------------------------|
D|---------------------------------|7-----------7---7-------9--------|
A|8-----------8---8----/--10-------|---------------------------------|
E|---------------------------------|---------------------------------|

G|---------------------------------|---------------------------------|
D|10------10--\---7-----------7----|----------------4-----/-7--------|
A|---------------------------------|5-------7------------------------|
E|---------------------------------|---------------------------------|

G|7--------------------------------|
D|------------7--------------------|
A|----------------5----------------|
E|---------------------------------|

Chorus : 
G|---------------------------------|---------------------------------|
D|5--------------------------------|------------0---2----------------|
A|------------------------5--------|3---------------------------2-/--|
E|--------------------3-------3----|---------------------------------|

G|---------------------------------|---------------------------------|
D|---------------------------------|----------------5----------------|
A|7---------------/---7---5--------|3-----------5--------------------|
E|---------------------------------|---------------------------------|

G|------------------------4--------|5--------------------------------|
D|5-----------5---5----------------|------------0---2----------------|
A|---------------------------------|----------------------------2-/--|
E|---------------------------------|---------------------------------|

G|---------------------------------|---------------------------------|
D|---------------------------------|----------------5----------------|
A|7---------------7-------5--------|3-----------5-----------0---2----|
E|------------7-------7------------|---------------------------------|

Verse 3 :
G|---------------------------------|---------------------------------|
D|---------------------------------|---------------------------------|
A|3---------------3----------------|---------------------------------|
E|---------------------------------|5---------------5-------0--------|

G|---------------------------------|---------------------------------|
D|---------------------------------|---------------------------------|
A|---------------------------------|----------------------------3----|
E|5---------------5-------3--------|1-----------1---1-------1--------|

G|---------------------------------|---------------------------------|
D|---------------------------------|---------------------------------|
A|---------------------------------|----------------------------2----|
E|1-----------1---1-------3--------|5-----------5---5-------5--------|

G|---------------------------------|---------------------------------|
D|---------------------------------|----------------4-------7--------|
A|3---------------------------/----|5-------7------------------------|
E|----------------5----------------|---------------------------------|

G|7-------7------------------------|
D|----7-------7--------------------|
A|----------------5----------------|
E|---------------------------------|

Chorus : 
G|---------------------------------|---------------|
D|---------------------------------|---------------| *4 instead of 8
A|------------------------5--------|3--------------|
E|3-------------------3------------|---------------|

Interlude :
G|---------------------------------|---------------------------------|
D|---------------------------------|---------------------------------|
A|---------------------------------|---------------------------------|
E|0-----------------------3---\----|0--------------------------------|

G|---------------------------------|---------------------------------|
D|---------------------------------|---------------------------------|
A|---------------------------------|---------------------------------|
E|5-------3-------0----------------|--------3---\---0----------------|

G|---------------------------------|---------------------------------|
D|---------------------------------|---------------------------------|
A|---------------------------------|---------------------------------|
E|----------------5-------3--------|0-----------------------3---\----|

Verse 4 :
G|---------------------------------|---------------------------------|
D|---------------------------------|---------------------------------|
A|3---------------3----------------|---------------------------------|
E|---------------------------------|5---------------5-------0---3----|

G|---------------------------------|---------------------------------|
D|---------------------------------|---------------------------------|
A|---------------------------------|---------------------------------|
E|5---------------5-------3--------|1-----------1---1-------1--------|

G|---------------------------------|---------------------------------|
D|---------------------------------|---------------------------------|
A|---------------------------------|---------------------------------|
E|1-----------1---1-------3---4----|5-----------5---5-------5--------|

G|---------------------------------|---------------------------------|
D|---------------------------------|---------------------------------|
A|3-------\-------------------/----|5-----------5---5----------------|
E|----------------5----------------|---------------------------------|

G|7-------7------------------------|
D|------------7--------------------|
A|----------------5----------------|
E|---------------------------------|

Chorus : 
G|---------------------------------|---------------|
D|---------------------------------|---------------| *4 instead of 8
A|------------------------2--------|3-------3---5--|
E|3-------------------3------------|---------------|

Interlude :
G|---------------------------------|---------------------------------|
D|---------------------------------|---------------------------------|
A|---------------------------------|---------------------------------|
E|0-----------------------3---\----|0--------------------------------|

G|---------------------------------|---------------------------------|
D|---------------------------------|---------------------------------|
A|---------------------------------|---------------------------------|
E|5-------3-------0----------------|---------------------------------|

************************************

| /  Slide up
| \  Slide down

************************************

            
            
Suggest correction
Creating personal tab
Creating personal tab
You can edit any tab online and save it as your Personal.

You can edit, replace or remove any tab part or add personal notes – all changes will be seen only by you.

Personal tabs can be accessed anytime from any device, even offline.
Learn more »
Give kudos to tab author, rate the tab!
1 2 3 4 5
comments
print report bad tab
guest
You may want to rate the tab now too:
select rating
Wanna post a correction for this tab? Suggest correction