Oops, an error
Loading. Please wait.

On The Way bass

61 views 1 this week
no commentswrite comment
1 2 3 4 5
3 more votes to show rating
add to favorites
×
Save as Personal and add changes to this tab that will be seen only by you. Learn more ›
×
You can save this tab as Personal to edit and correct it or add notes. All changes will be seen only by you. Learn more »
launch autoscroll
font size
0
reset
guitar tuner
edit
Autoscroll
slow
fast
+/-
esc
set tempo
stop
Intro :
G|---------------------------------|---------------------------------|
D|---------------------------------|---------------------------------|
A|---------------------------------|---------------------------------|
E|---------------------------------|------------------------6---5----|

G|---------------------------------|---------------------------------|
D|---------------------------------|---------------------------------|
A|---------------------------------|------------5--------------------|
E|4-----------4---4-----------5----|6---6-----------6----------------|

G|---------------------------------|---------------------------------|
D|---------------------------------|---------------------------------|
A|6-----------6---6----------------|6-----------6---4-------6--------|
E|---------------------------------|---------------------------------|

Verse 1 :
G|---------------------------------|---------------------------------|
D|4--------------------------------|---------------------------------|
A|----6-------6---6----------------|6-----------6--------------------|
E|---------------------------------|----------------6-------5--------|

G|---------------------------------|---------------------------------|
D|---------------------------------|---------------------------------|
A|---------------------------------|---------------------------------|
E|4-----------4---4-----------4----|4-----------4---4---2---2---2----|

G|---------------------------------|---------------------------------|
D|---------------------------------|4---4---4---4--------------------|
A|---------------------------------|----------------6---6---5--------|
E|6-----------6---6-----------6----|----------------------------6----|

G|---------------------------------|---------------------------------|
D|---------------------------------|---------------------------------|
A|6-----------6---6-----------4----|6-----------4---6----------------|
E|---------------------------------|------------------------6---5----|

Chorus :
G|---------------------------------|---------------------------------|
D|---------------------------------|---------------------------------|
A|----------------------------6----|---------------------------------|
E|4-----------4---4----------------|4-----------2---4---4---5---6----|

G|---------------------------------|---------------------------------|
D|---------------------------------|---------------------------------|
A|6-----------6---6-----------6----|------------------------5---6----|
E|---------------------------------|6-----------6---6----------------|

G|---------------------------------|
D|---------------------------------|
A|6-----------6---6-----------4----|
E|---------------------------------|

Solo :
G|---------------------------------|---------------------------------|
D|---------------------------------|---------------------------------|
A|6--------------------------------|6-----------6---6-----------4----|
E|----6---6---6---4---4---2--------|---------------------------------|

G|---------------------------------|
D|---------------------------------|
A|6---------------5-------6--------|
E|------------6--------------------|

Verse 2 :
G|---------------------------------|---------------------------------|
D|---------------------------------|---------------------------------|
A|6-----------6---6-----------4----|6---6-------6-------6---0---6----|
E|---------------------------------|----------------6----------------|

G|---------------------------------|---------------------------------|
D|---------------------------------|---------------------------------|
A|---------------------------------|----------------------------4----|
E|4-----------4---4-----------2----|4-----------2---4-------6--------|

G|---------------------------------|---------------------------------|
D|---------------------------------|---------------------------------|
A|---------------------------------|------------------------4---6----|
E|6-----------6---6-----------6----|6-----/-11-----------------------|

G|---------------------------------|---------------------------------|
D|---------------------------------|----------------4----/--8--------|
A|6-----------4---6-----------4----|6-----------6--------------------|
E|---------------------------------|---------------------------------|

Chorus :
G|---------------------------------|---------------------------------|
D|6--------------------------------|---------------------------------|
A|---------------------------------|------------------------4--------|
E|------------/---4---4------------|4-----------4--/6----------------|

G|---------------------------------|---------------------------------|
D|---------------------------------|---------------------------------|
A|6-----------4---6-------4--------|------------------------4--------|
E|---------------------------------|6---------------6----------------|

G|---------------------------------|---------------------------------|
D|4---------------------------4----|---------------------------------|
A|--------6-------4-------\--------|6---------------------------4----|
E|---------------------------------|--------------------6---6--------|

Interlude :
G|---------------------------------|---------------------------------|
D|---------------------------------|---------------------------------|
A|---------------------------------|4-----------4---4-----------4----|
E|6-----------6---6-----------6----|---------------------------------|

G|---------------------------------|---------------------------------|
D|---------------------------------|---------------------------------|
A|6-----------------------6---4----|6--------------------------------|
E|---------------------------------|------------------------4---5----|

Solo :
G|---------------------------------|---------------------------------|
D|---------------------------------|---------------------------------|
A|----------------------------4----|----------------------------4----|
E|6-----------4---6----------------|6---------------6-------6--------|

G|---------------------------------|---------------------------------|
D|---------------------------------|---------------------------------|
A|6-----------6---6-----------4----|6-----------6---6----------------|
E|---------------------------------|------------------------6---5----|

G|---------------------------------|---------------------------------|
D|---------------------------------|------------------------4---4----|
A|---------------------------------|----------------4----------------|
E|4-----------2---4-----------4----|4-------6------------------------|

G|---------------------------------|---------------------------------|
D|---------------------------------|---------------------------------|
A|6-----------4---6----------------|6-----------6---6-------4--------|
E|---------------------------------|---------------------------------|

G|---------------------------------|---------------------------------|
D|---------------------------------|------------4---4----------------|
A|---------------------------------|------------------------6--------|
E|6-----------6---6-----------4----|6-------6------------------------|

Chorus :
G|---------------------------------|---------------------------------|
D|---------------------------------|--------4-------------------4----|
A|6-----------6---6-----------4----|6---6-------6-------6---6--------|
E|---------------------------------|---------------------------------|

G|---------------------------------|---------------------------------|
D|6-----------4---6----------------|---------------------------------|
A|--------------------6------------|---------------------------------|
E|------------------------2---4--/-|6---6---6---6---4---4---2--------|

G|---------------------------------|---------------------------------|
D|---------------------------------|---------------------------------|
A|6-----------4---6-----------4----|----------------------------6----|
E|---------------------------------|6-----------6---6-------4--------|

G|---------------------------------|--------------/-8-----/-8--------|
D|4--------------------------------|-----/--8------------------------|
A|--------6---4---6---6---6--------|6--------------------------------|
E|----------------------------4----|---------------------------------|

Interlude :
G|---------------------------------|---------------------------------|
D|---------------------------------|---------------------------------|
A|6-----------4---6-----------4----|6-----------6--------------------|
E|---------------------------------|----------------6---6---5---5----|

G|---------------------------------|---------------------------------|
D|---------------------------------|---------------------------------|
A|---------------------------------|------------------------4--------|
E|4-----------2---4-----------2----|4-----------4---6----------------|

Chorus :
G|---------------------------------|---------------------------------|
D|4--------------------------------|---------------------------------|
A|----6---6-------6-------6--------|----------------------------4----|
E|---------------------------------|6-----------6---4---6------------|

G|---------------------------------|---------------------------------|
D|4------------------------------/-|8---8---7---7---6---6---4---4----|
A|----6-------4---6---6-------6----|---------------------------------|
E|---------------------------------|---------------------------------|

G|---------------------------------|---------------------------------|
D|---------------------------------|---------------------------------|
A|6-----------6---6-----------4----|6---6---4---4--------------------|
E|---------------------------------|----------------6---6---5---5----|

G|---------------------------------|---------------------------------|
D|---------------------------------|------------------------4---4----|
A|---------------------------------|----------------4---4------------|
E|4---4---4-------4-----------2----|4---4---6---6--------------------|

G|---------------------------------|---------------------------------|
D|---------------------------------|---------------------------------|
A|6---6---6---4---6---6---4---4----|----------------------------4----|
E|---------------------------------|6---6---6-----------4---6--------|

G|---------------------------------|---------------------------------|
D|---------------------------------|--------4---4---6-------6--------|
A|6---6---6---4---6-------6---4----|6--------------------------------|
E|---------------------------------|---------------------------------|

G|---------------------------------|---------------------------------|
D|----8---8-----------8---8------/-|8---8---8---8---9---8---8--------|
A|---------------------------------|---------------------------------|
E|6-------------/-6----------------|---------------------------------|

G|--------8-----------8---8--------|---------------------------------|
D|---------------------------------|---------------------------------|
A|6---6-----------6----------------|6--------------------------------|
E|---------------------------------|---------------------------------|

            
            
Suggest correction
Creating personal tab
Creating personal tab
You can edit any tab online and save it as your Personal.

You can edit, replace or remove any tab part or add personal notes – all changes will be seen only by you.

Personal tabs can be accessed anytime from any device, even offline.
Learn more »
Give kudos to tab author, rate the tab!
1 2 3 4 5
comments
print report bad tab
guest
You may want to rate the tab now too:
select rating
Wanna post a correction for this tab? Suggest correction