Oops, an error
Loading. Please wait.

One More Kiss bass

43 views 1 this week
no commentswrite comment
1 2 3 4 5
3 more votes to show rating
add to favorites
×
Save as Personal and add changes to this tab that will be seen only by you. Learn more ›
×
You can save this tab as Personal to edit and correct it or add notes. All changes will be seen only by you. Learn more »
launch autoscroll
font size
0
reset
guitar tuner
edit
Autoscroll
slow
fast
+/-
esc
set tempo
stop
Author
Difficulty
Intro :
G|---------------------------------|---------------------------------|
D|5--------------------------------|---------------------------------|
A|---------------------------------|------------2-------3------------|
E|---------------------------------|3--------------------------------|

G|---------------------------------|---------------------------------|
D|---------------------------------|---------------------------------|
A|5--------------------------------|------------2-------3------------|
E|--------2-------3----------------|3--------------------------------|

G|---------------------------------|---------------------------------|
D|---------------------------------|----------------2----------------|
A|5--------------------------------|3--------------------------------|
E|--------2-------3----------------|---------------------------------|

G|---------------------------------|---------------------------------|
D|---------------------------------|----------------2----------------|
A|2--------------------------------|------------2-----------3---4----|
E|----------------5----------------|5--------------------------------|

Chorus :
G|---------------------------------|
D|---------------------------------|
A|5--------------------------------|
E|---------------------------------|

G|---------------------------------|---------------------------------|
D|---------------------------------|---------------------------------|
A|2--------------------------------|2--------------------------------|
E|----------------2-----2-2--------|----------------2-----2-2--------|

G|---------------------------------|---------------------------------|
D|2--------------------------------|2--------------------------------|
A|----------------2-----2-2--------|----------------2-----2-2--------|
E|---------------------------------|---------------------------------|

G|---------------------------------|---------------------------------|
D|---------------------------------|---------------------------------|
A|2---------------2-------1--------|0---------------5----------------|
E|---------------------------------|---------------------------------|

G|---------------------------------|---------------------------------|
D|---------------------------------|---------------------------------|
A|----------------2-------3--------|5--------------------------------|
E|3--------------------------------|--------2-------3----------------|

Verse 1 :
G|---------------------------------|---------------------------------|
D|---------------------------------|---------------------------------|
A|----------------2-------3--------|5--------------------------------|
E|3--------------------------------|--------2-------3----------------|

G|---------------------------------|---------------------------------|
D|---------------------------------|---------------------------------|
A|----------------2-------3--------|5-----------------------2--------|
E|3--------------------------------|--------2-------3----------------|

G|---------------------------------|---------------------------------|
D|----------------2----------------|---------------------------------|
A|3--------------------------------|2--------------------------------|
E|---------------------------------|----------------5----------------|

G|---------------------------------|
D|---------------------------------|
A|5-----------2---3----------------|
E|---------------------------------|

Chorus :
G|---------------------------------|---------------------------------|
D|---------------------------------|---------------------------------|
A|5--------------------------------|2--------------------------------|
E|---------------------------------|----------------2-----2-2--------|

G|---------------------------------|---------------------------------|
D|---------------------------------|2--------------------------------|
A|2--------------------------------|----------------2-----2-2--------|
E|----------------2-----2-2--------|---------------------------------|

G|---------------------------------|---------------------------------|
D|2--------------------------------|---------------------------------|
A|----------------2-----2-2--------|2---------------2-------1--------|
E|---------------------------------|---------------------------------|

G|---------------------------------|---------------------------------|
D|---------------------------------|---------------------------------|
A|0-----------4---5----------------|----------------2-------3--------|
E|---------------------------------|3--------------------------------|

G|---------------------------------|
D|---------------------------------|
A|5--------------------------------|
E|--------2-------3----------------|

Solo :
G|---------------------------------|---------------------------------|
D|---------------------------------|---------------------------------|
A|----------------2-------3--------|5--------------------------------|
E|3--------------------------------|--------2-------3----------------|

G|---------------------------------|---------------------------------|
D|---------------------------------|---------------------------------|
A|----------------2-------3--------|5-----------------------2--------|
E|3--------------------------------|--------2-------3----------------|

G|---------------------------------|---------------------------------|
D|----------------2----------------|---------------------------------|
A|3--------------------------------|2--------------------------------|
E|---------------------------------|----------------5----------------|

G|---------------------------------|
D|---------------------------------|
A|5-----------2---3-----------/----|
E|---------------------------------|

Chorus :
G|---------------------------------|---------------------------------|
D|---------------------------------|---------------------------------|
A|5--------------------------------|2--------------------------------|
E|---------------------------------|----------------2-----2-2--------|

G|---------------------------------|---------------------------------|
D|---------------------------------|2--------------------------------|
A|2--------------------------------|----------------2-----2-2--------|
E|----------------2-----2-2--------|---------------------------------|

G|---------------------------------|---------------------------------|
D|2--------------------------------|---------------------------------|
A|----------------2-----2-2--------|2---------------2-------1--------|
E|---------------------------------|---------------------------------|

G|---------------------------------|---------------------------------|
D|---------------------------------|---------------------------------|
A|0---------------5----------------|----------------2-------3--------|
E|---------------------------------|3--------------------------------|

G|---------------------------------|
D|---------------------------------|
A|5-------1------------------------|
E|----------------3----------------|

Verse 2 :
G|---------------------------------|---------------------------------|
D|---------------------------------|---------------------------------|
A|----------------2-------3--------|5--------------------------------|
E|3--------------------------------|--------2-------3----------------|

G|---------------------------------|---------------------------------|
D|---------------------------------|---------------------------------|
A|----------------2-------3--------|5--------------------------------|
E|3--------------------------------|--------2-------3----------------|

G|---------------------------------|---------------------------------|
D|----------------2----------------|---------------------------------|
A|3--------------------------------|2--------------------------------|
E|---------------------------------|----------------5----------------|

G|---------------------------------|
D|---------------------------------|
A|5-----------2---3----------------|
E|---------------------------------|

Chorus :
G|---------------------------------|---------------------------------|
D|---------------------------------|---------------------------------|
A|5--------------------------------|2--------------------------------|
E|---------------------------------|----------------2-----2-2--------|

G|---------------------------------|---------------------------------|
D|---------------------------------|2--------------------------------|
A|2--------------------------------|----------------2-----2-2--------|
E|----------------2-----2-2--------|---------------------------------|

G|---------------------------------|---------------------------------|
D|2--------------------------------|---------------------------------|
A|----------------2-----2-2--------|2---------------2-------1--------|
E|---------------------------------|---------------------------------|

G|---------------------------------|---------------------------------|
D|---------------------------------|---------------------------------|
A|0---------------5----------------|----------------2-------1--------|
E|---------------------------------|3--------------------------------|

G|---------------------------------|---------------------------------|
D|---------------------------------|---------------------------------|
A|0---------------5----------------|----------------2-------3--------|
E|---------------------------------|3--------------------------------|

G|---------------------------------|
D|---------------------------------|
A|5-------1------------------------|
E|----------------3----------------|

            
            
Suggest correction
Creating personal tab
Creating personal tab
You can edit any tab online and save it as your Personal.

You can edit, replace or remove any tab part or add personal notes – all changes will be seen only by you.

Personal tabs can be accessed anytime from any device, even offline.
Learn more »
Give kudos to tab author, rate the tab!
1 2 3 4 5
comments
print report bad tab
guest
You may want to rate the tab now too:
select rating
Wanna post a correction for this tab? Suggest correction