Oops, an error
Loading. Please wait.

Only Mama Knows bass

version 1
version 1

Whole song

Interactive

52 views 3 this week
no commentswrite comment
1 2 3 4 5
3 more votes to show rating
add to favorites
×
Save as Personal and add changes to this tab that will be seen only by you. Learn more ›
×
You can save this tab as Personal to edit and correct it or add notes. All changes will be seen only by you. Learn more »
launch autoscroll
font size
0
reset
guitar tuner
edit
Autoscroll
slow
fast
+/-
esc
set tempo
stop
Author
Difficulty
Intro :
G|---------------------------------|---------------------------------|
D|---------------------------------|----------------7-------5--------|
A|---------------------------------|5-------7------------------------|
E|0-------3-------5-------7--------|---------------------------------|

G|---------------------------------|
D|5--------------------------------|
A|----5---7------------------------|
E|---------------------------------|

Verse 1 :
G|---------------------------------|---------------------------------|
D|---------------------------------|----------------------------7----|
A|7---7---7---7---7---7---7---7----|5-------5---5---5---5---5--------|
E|---------------------------------|---------------------------------|

G|---------------------------------|---------------------------------|
D|---------------------------------|------------------------7---9----|
A|7---7---7---7---7---7---7---7----|5---5---5---5---5---5------------|
E|---------------------------------|---------------------------------|

G|---------------------------------|---------------------------------|
D|---------------------------------|----------------------------7----|
A|7---7---7---7---7---7---7---7----|5---5---5---5---5---5---5--------|
E|---------------------------------|---------------------------------|

G|---------------------------------|---------------------------------|
D|---------------------------------|---------------------------------|
A|7---7---7---7---7---7---7---7-/--|9---9---9---9---9---9---9---8----|
E|---------------------------------|---------------------------------|

G|---------------------------------|---------------------------------|
D|---------------------------------|---------------------------------|
A|7---7---7---7---7---7---7---7----|5---5---5---5---5---5---5---5----|
E|---------------------------------|---------------------------------|

G|---------------------------------|
D|--------9-------7-------9--------|
A|5---5----------------------------|
E|---------------------------------|

G|---------------------------------|---------------------------------|
D|---------------------------------|------------------------7---9----|
A|7---7---7---7---7---7---7---7----|5---5---5---5---5---5------------|
E|---------------------------------|---------------------------------|

G|---------------------------------|---------------------------------|
D|---------------------------------|---------------------------------|
A|7---7---7---7---7---7---7---7----|5-------5---5---5---7---5---5----|
E|---------------------------------|---------------------------------|

G|---------------------------------|---------------------------------|
D|---------------------------------|---------------------------------|
A|7---7---7-------7---7---7---7----|5-------5---5---5---5---5---5----|
E|------------0--------------------|---------------------------------|

G|---------------------------------|---------------------------------|
D|---------------------------------|---------------------------------|
A|7---7---7---7---7---7---7---7-/--|9-------9---9---9---9---9---8----|
E|---------------------------------|---------------------------------|

G|---------------------------------|----------------------|
D|---------------------------------|----------------------| *6 instead of 8
A|7---7---7---7---7---7---7---7----|5---------------7-----|
E|---------------------------------|--------5-------------|

Chorus :
G|---------------------------------|---------------------------------|
D|---------------------------------|---------------------------------|
A|---------------------------------|6-------6---6---6---6---6---6----|
E|7-------7---7---7---7---7---7----|---------------------------------|

G|---------------------------------|---------------------------------|
D|---------------------------------|------------------------7--------|
A|4---4---4---4---4---4---4---6----|7-------9-------10---------------|
E|---------------------------------|---------------------------------|

G|---------------------------------|---------------------------------|
D|---------------------------------|---------------------------------|
A|---------------------------------|6-------6---6---6---6---6---6----|
E|7-------7---7---7---7---7---7----|---------------------------------|

G|---------------------------------|---------------------------------|
D|---------------------------------|---------------------------------|
A|4---4---4---4---4---4---4---4----|7--------------------------------|
E|---------------------------------|---------------------------------|

G|---------------------------------|---------------------------------|
D|---------------------------------|---------------------------------|
A|---------------------------------|---------------------------------|
E|0-------0---0---0---0---0---0----|0---0---0---0---0---0---0---0----|

G|---------------------------------|---------------------------------|
D|---------------------------------|---------------------------------|
A|---------------------------------|---------------------------------|
E|0---0---0---0---0---0---0---0----|0---0---0---0---0---0---0---0----|

Bridge :
G|---------------------------------|---------------------------------|
D|---------------------------------|---------------------------------|
A|---------------------------------|---------------------------------|
E|0---0---0---0---0---0---7---\----|0---0---0---0---0---7---\--------|

G|---------------------------------|---------------------------------|
D|---------------------------------|---------------------------------|
A|---------------------------------|---------------------------------|
E|0---0---0---0---0---7---\--------|0---0---0---0---0---7---\--------|

G|---------------------------------|---------------------------------|
D|---------------------------------|---------------------------------|
A|---------------------------------|---------------------------------|
E|0---0---0---0---0---7---\--------|0---0---0---0---0---7---\--------|

G|---------------------------------|---------------------------------|
D|---------------------------------|---------------------------------|
A|---------------------------------|---------------------------------|
E|0---0---0---0---0---7---\--------|0---0---0---0---0---7---\--------|

G|---------------------------------|---------------------------------|
D|---------------------------------|---------------------------------|
A|---------------------------------|---------------------------------|
E|0---0---0---0---0---0---7--------|0-------0---0---0---7---\--------|

G|---------------------------------|------------12--11--9---7--------|
D|---------------------------------|---------------------------------|
A|---------------------------------|---------------------------------|
E|0---0---0---0---0---7---\--------|0-------0------------------------|

G|---------------------------------|--------12--11--9---9---7--------|
D|---------------------------------|---------------------------------|
A|---------------------------------|---------------------------------|
E|0---0---0---0---0---7---\--------|0--------------------------------|

G|---------------------------------|---------------------------------|
D|---------------------------------|---------------------------------|
A|---------------------------------|---------------------------------|
E|0--------------------------------|---------------------------------|

G|---------------------------------|---------------------------------|
D|---------------------------------|---------------------------------|
A|---------------------------------|---------------------------------|
E|---------------------------------|---------------------------------|

G|---------------------------------|---------------------------------|
D|---------------------------------|---------------------------------|
A|---------------------------------|---------------------------------|
E|---------------------------------|---------------------------------|

G|---------------------------------|---------------------------------|
D|---------------------------------|----------------7-------5--------|
A|---------------------------------|5-------7------------------------|
E|0-------3-------5-------7--------|---------------------------------|

G|---------------------------------|
D|5--------------------------------|
A|----5---7------------------------|
E|---------------------------------|

Verse 2 :
G|---------------------------------|---------------------------------|
D|---------------------------------|----------------------------7----|
A|7-------7---7---7---7---7---7----|5---5---5---5---5---5---5--------|
E|---------------------------------|---------------------------------|

G|---------------------------------|----------------7----------------|
D|---------------------------------|--------7---------------7--------|
A|7---7---7---7---7---7---7---6----|5---5----------------------------|
E|---------------------------------|---------------------------------|

G|---------------------------------|---------------------------------|
D|---------------------------------|------------------------7---9----|
A|7---7---7---7---7---7---7---7----|5---5---5---5---5---5------------|
E|---------------------------------|---------------------------------|

G|---------------------------------|---------------------------------|
D|---------------------------------|---------------------------------|
A|7---7---7---7---7---7---7---7-/--|9---9---9---9---9---9---9---8----|
E|---------------------------------|---------------------------------|

G|---------------------------------|----------------------|
D|---------------------------------|----------------------| *6 instead of 8
A|7---7---7---7---7---7---7---7----|5---------------7-----|
E|---------------------------------|--------5-------------|

Chorus :
G|---------------------------------|---------------------------------|
D|---------------------------------|---------------------------------|
A|---------------------------------|6-------6---6---6---6---6---\----|
E|7-------7---7---7---7---7---7----|---------------------------------|

G|---------------------------------|---------------------------------|
D|---------------------------------|---------------------------------|
A|4---4---4---4---4---4---5---6----|7-------9-------10------9--------|
E|---------------------------------|---------------------------------|

G|---------------------------------|---------------------------------|
D|---------------------------------|---------------------------------|
A|---------------------------------|6-------6---6---6---6---6---6----|
E|7-------7---7---7---7---7---7----|---------------------------------|

G|---------------------------------|---------------------------------|
D|---------------------------------|---------------------------------|
A|4---4---4---4---4---4---4---4----|7--------------------------------|
E|---------------------------------|---------------------------------|

G|---------------------------------|---------------------------------|
D|---------------------------------|---------------------------------|
A|---------------------------------|---------------------------------|
E|0-------0---0---0---0---0---0----|0---0---0---0---0---0---0---0----|

G|---------------------------------|---------------------------------|
D|---------------------------------|---------------------------------|
A|---------------------------------|---------------------------------|
E|0---0---0---0---0---0---0---0----|0-------2-------3-------5--------|

G|---------------------------------|---------------------------------|
D|---------------------------------|---------------------------------|
A|---------------------------------|6-------6---6---6---6---6---6----|
E|7---7---7---7---7---7---7---7----|---------------------------------|

G|---------------------------------|---------------------------------|
D|---------------------------------|---------------------------------|
A|4---4---4---4---4---4---5---6----|7-------9-------10------9--------|
E|---------------------------------|---------------------------------|

G|---------------------------------|---------------------------------|
D|---------------------------------|---------------------------------|
A|---------------------------------|6-------6---6---6---6---6---6----|
E|7---7---7---7---7---7---7---7----|---------------------------------|

G|---------------------------------|---------------------------------|
D|---------------------------------|---------------------------------|
A|4---4---4---4---4---4---4---4----|7--------------------------------|
E|---------------------------------|---------------------------------|

G|---------------------------------|---------------------------------|
D|---------------------------------|---------------------------------|
A|---------------------------------|---------------------------------|
E|0-------0---0---0---0---0---0----|0---0---0---0---0---0---0---0----|

G|---------------------------------|---------------------------------|
D|---------------------------------|---------------------------------|
A|---------------------------------|---------------------------------|
E|0---0---0---0---0---0---0---0----|0-------2-------3-------5--------|

Bridge :
G|---------------------------------|---------------------------------|
D|---------------------------------|---------------------------------|
A|---------------------------------|---------------------------------|
E|0---0---0---0---0---0---7---\----|0---0---0---0---0---7---\--------|

G|---------------------------------|---------------------------------|
D|---------------------------------|---------------------------------|
A|---------------------------------|---------------------------------|
E|0---0---0---0---0---7---\--------|0---0---0---0---0---7---\--------|

G|---------------------------------|----12--11--9---7----------------|
D|---------------------------------|---------------------------------|
A|---------------------------------|---------------------------------|
E|0---0---0---0---0---0---0---0----|0--------------------------------|

G|---------------------------------|12--11--11--9---9---7---7--------|
D|---------------------------------|---------------------------------|
A|---------------------------------|---------------------------------|
E|0---0---0---0---0---0---0---0----|---------------------------------|

G|---------------------------------|----12--11--9---7-------9--------|
D|---------------------------------|---------------------------------|
A|---------------------------------|---------------------------------|
E|0---0---0---0---0---0---0---0----|0--------------------------------|

Outro :
G|---------------------------------|---------------------------------|
D|---------------------------------|----------------7-------5--------|
A|---------------------------------|5-------7------------------------|
E|0-------3-------5-------7--------|---------------------------------|

G|---------------------------------|
D|5--------------------------------|
A|----5----------------------------|
E|--------0------------------------|

            
            
Suggest correction
Creating personal tab
Creating personal tab
You can edit any tab online and save it as your Personal.

You can edit, replace or remove any tab part or add personal notes – all changes will be seen only by you.

Personal tabs can be accessed anytime from any device, even offline.
Learn more »
Give kudos to tab author, rate the tab!
1 2 3 4 5
comments
print report bad tab
guest
You may want to rate the tab now too:
select rating
Wanna post a correction for this tab? Suggest correction