Oops, an error
Loading. Please wait.

Oo You bass

61 views 3 this week
no commentswrite comment
1 2 3 4 5
3 more votes to show rating
add to favorites
×
Save as Personal and add changes to this tab that will be seen only by you. Learn more ›
×
You can save this tab as Personal to edit and correct it or add notes. All changes will be seen only by you. Learn more »
launch autoscroll
font size
0
reset
guitar tuner
edit
Autoscroll
slow
fast
+/-
esc
set tempo
stop
Author
Difficulty
Intro :
G|12-------------10----------------|---------------------------------|
D|----------10h12----12\-10--------|--------8---5--------------------|
A|---------------------------------|8-9-10---------------------------|
E|---------------------------------|---------------------------------|

G|12-------------10----------------|---------------------------------|
D|----------10h12----12\-10--------|--------8---5---------------3----|
A|---------------------------------|8-9-10--------------5------------|
E|---------------------------------|---------------------------------|

Chorus :
G|---------------------------------|---------------------------------|
D|5---5-------5---------------3----|5---5-----------------------3--4/|
A|--------------------5------------|------------3-------5------------|
E|---------------------------------|---------------------------------|

G|---------------------------------|---------------------------------|
D|5---5-------5---------------3----|5---5-----------------------3----|
A|--------------------5------------|------------3-------5------------|
E|---------------------------------|---------------------------------|

G|---------------------------------|---------------------------------|
D|5---5-------5---------------3----|5---5-----------------------3----|
A|--------------------5------------|------------3-------5------------|
E|---------------------------------|---------------------------------|

G|---------------------------------|---------------------------------|
D|5---5-------5---------------3----|5---5----------------------------|
A|--------------------5------------|------------3-------3---5---8-\--|
E|---------------------------------|---------------------------------|

G|---------------------------------|---------------------------------|
D|---------------------------------|---------------------------------|
A|---------------------------------|---------------------------------|
E|3---3---3---3---3---3---3---3----|3---3---3---3---3---3---3---3----|

G|---------------------------------|---------------------------------|
D|---------------------------------|---------------------------------|
A|3---3---3---3---3---3---3---3----|3---3---3---3---3---3---3---3----|
E|---------------------------------|---------------------------------|

G|---------------------------------|---------------------------------|
D|---------------------------------|---------------------------------|
A|---------------------------------|---------------------------------|
E|3---3---3---3---3---3---3---3----|3---3---3---3---3---3---3---3----|

G|---------------------------------|---------------------------------|
D|---------------------------------|---------------------------------|
A|3---3---3---3---3---3---3---3----|5---\----------------------------|
E|---------------------------------|---------------------------------|

Interlude :
G|12-------------10----------------|---------------------------------|
D|----------10h12----12\-10--------|--------8---5--------------------|
A|---------------------------------|8-9-10---------------------------|
E|---------------------------------|---------------------------------|

G|12-------------10----------------|---------------------------------|
D|----------10h12----12\-10--------|--------8---5---------------3----|
A|---------------------------------|8-9-10--------------5------------|
E|---------------------------------|---------------------------------|

Chorus :
G|---------------------------------|---------------------------------|
D|5---5-------5---------------3----|5---5-----------------------3--4/|
A|--------------------5------------|------------3-------5------------|
E|---------------------------------|---------------------------------|

G|---------------------------------|---------------------------------|
D|5---5-------5---------------3----|5---5-----------------------3----|
A|--------------------5------------|------------3-------5------------|
E|---------------------------------|---------------------------------|

G|---------------------------------|---------------------------------|
D|5---5-------5---------------3----|5---5-----------------------3----|
A|--------------------5------------|------------3-------5------------|
E|---------------------------------|---------------------------------|

G|---------------------------------|---------------------------------|
D|5---5-------5---------------3----|5---5----------------------------|
A|--------------------5------------|------------3-------5-------8-\--|
E|---------------------------------|---------------------------------|

G|---------------------------------|---------------------------------|
D|---------------------------------|---------------------------------|
A|---------------------------------|---------------------------------|
E|3---3---3---3---3---3---3---3----|3---3---3---3---3---3---3---3----|

G|---------------------------------|---------------------------------|
D|---------------------------------|---------------------------------|
A|3---3---3---3---3---3---3---3----|3---3---3---3---3---3---3---3-\--|
E|---------------------------------|---------------------------------|

G|---------------------------------|---------------------------------|
D|---------------------------------|---------------------------------|
A|---------------------------------|---------------------------------|
E|3---3---3---3---3---3---3---3----|3---3---3---3---3---3---3---3----|

G|---------------------------------|---------------------------------|
D|---------------------------------|---------------------------------|
A|3---3---3---3---3---3---3---3----|5---\----------------------------|
E|---------------------------------|---------------------------------|

Interlude :
G|12-------------10----------------|---------------------------------|
D|----------10h12----12\-10--------|--------8---5--------------------|
A|---------------------------------|8-9-10---------------------------|
E|---------------------------------|---------------------------------|

G|12-------------10----------------|---------------------------------|
D|----------10h12----12\-10--------|--------8---5---------------3----|
A|---------------------------------|8-9-10--------------5------------|
E|---------------------------------|---------------------------------|

Chorus :
G|---------------------------------|---------------------------------|
D|5---5-------5---------------3----|5---5-----------------------3----|
A|--------------------5------------|------------3-------5------------|
E|---------------------------------|---------------------------------|

G|---------------------------------|---------------------------------|
D|5---5-------5---------------3----|5---5-----------------------3----|
A|--------------------5------------|------------3-------5------------|
E|---------------------------------|---------------------------------|

G|---------------------------------|---------------------------------|
D|5---5-------5---------------3----|5---5-----------------------3----|
A|--------------------5------------|------------3-------5------------|
E|---------------------------------|---------------------------------|

G|---------------------------------|---------------------------------|
D|5---5-------5---------------3----|5---5----------------------------|
A|--------------------5------------|------------3-------3---5---8-\--|
E|---------------------------------|---------------------------------|

Outro :
G|---------------------------------|---------------------------------|
D|---------------------------------|---------------------------------|
A|---------------------------------|---------------------------------|
E|3---3---3---3---3---3---3---3----|3---3---3---3---3---3---3---3----|

G|---------------------------------|---------------------------------|
D|---------------------------------|---------------------------------|
A|3---3---3---3---3---3---3---3----|3---3---3---3---3---3---3---3----|
E|---------------------------------|---------------------------------|

G|---------------------------------|---------------------------------|
D|---------------------------------|---------------------------------|
A|---------------------------------|----------------3---3-/-5--------|
E|3---3---3---3---3---3---3---3----|3---3---3---3--------------------|


***********************************
/ = slide up
\ = slide down
h = hammer-on
**********************************
Suggest correction
Creating personal tab
Creating personal tab
You can edit any tab online and save it as your Personal.

You can edit, replace or remove any tab part or add personal notes – all changes will be seen only by you.

Personal tabs can be accessed anytime from any device, even offline.
Learn more »
Give kudos to tab author, rate the tab!
1 2 3 4 5
comments
print report bad tab
guest
You may want to rate the tab now too:
select rating
Wanna post a correction for this tab? Suggest correction