Oops, an error
Loading. Please wait.

Party bass

61 views 3 this week
no commentswrite comment
1 2 3 4 5
3 more votes to show rating
add to favorites
×
Save as Personal and add changes to this tab that will be seen only by you. Learn more ›
×
You can save this tab as Personal to edit and correct it or add notes. All changes will be seen only by you. Learn more »
launch autoscroll
font size
0
reset
guitar tuner
edit
Autoscroll
slow
fast
+/-
esc
set tempo
stop
Author
Difficulty
Chorus :
G|---------------------------------|---------------------------------|
D|---------------------------------|---------------------------------|
A|---------------------------------|---------------------------------|
E|0--------------------------------|0--------------------------------|

G|---------------------------------|---------------------------------|
D|---------------------------------|---------------------------------|
A|---------------------------------|---------------------------------|
E|0--------------------------------|---------------------------------|

G|---------------------------------|---------------------------------|
D|---------------------------------|---------------------------------|
A|---------------------------------|---------------------------------|
E|5---5---5---5---5---5---5---5----|5---5---5---5---5---5---5---5----|

G|---------------------------------|---------------------------------|
D|---------------------------------|---------------------------------|
A|---------------------------------|---------------------------------|
E|0---0---0---0---0---0---0---0----|0---0---0---0---0---0---0---0----|

G|---------------------------------|---------------------------------|
D|---------------------------------|---------------------------------|
A|----------------2---2---2---2----|---------------------------------|
E|2---2---2---2--------------------|0---0---0---0---0---0---0---0----|

G|---------------------------------|---------------------------------|
D|---------------------------------|---------------------------------|
A|----------------2---2---2---2----|---------------------------------|
E|2---2---2---2--------------------|0---0---0---0---0---0---0---0----|

Chorus :
G|---------------------------------|---------------------------------|
D|---------------------------------|---------------------------------|
A|---------------------------------|---------------------------------|
E|0--------------------------------|0--------------------------------|

G|---------------------------------|---------------------------------|
D|---------------------------------|---------------------------------|
A|---------------------------------|---------------------------------|
E|0--------------------------------|---------------------------------|

G|---------------------------------|---------------------------------|
D|---------------------------------|---------------------------------|
A|---------------------------------|---------------------------------|
E|5---5---5---5---5---5---5---5----|5---5---5---5---5---5---5---5----|

G|---------------------------------|---------------------------------|
D|---------------------------------|---------------------------------|
A|---------------------------------|---------------------------------|
E|0---0---0---0---0---0---0---0----|0---0---0---0---0---0---0---0----|

G|---------------------------------|---------------------------------|
D|---------------------------------|---------------------------------|
A|----------------2---2---2---2----|---------------------------------|
E|2---2---2---2--------------------|0---0---0---0---0---0---0---0----|

G|---------------------------------|---------------------------------|
D|---------------------------------|---------------------------------|
A|----------------2---2---2---2----|---------------------------------|
E|2---2---2---2--------------------|0---0---0---0---0---0---0---0----|

Chorus :
G|---------------------------------|---------------------------------|
D|---------------------------------|---------------------------------|
A|---------------------------------|---------------------------------|
E|0--------------------------------|0--------------------------------|

G|---------------------------------|---------------------------------|
D|---------------------------------|---------------------------------|
A|---------------------------------|---------------------------------|
E|0--------------------------------|------------------------12---\---|

G|---------------------------------|---------------------------------|
D|---------------------------------|---------------------------------|
A|---------------------------------|---------------------------------|
E|5---5---5---5---5---5---5---5----|5---5---5---5---5---5---5---5----|

G|---------------------------------|---------------------------------|
D|---------------------------------|---------------------------------|
A|---------------------------------|---------------------------------|
E|0---0---0---0---0---0---0---0----|0---0---0---0---0---0---0---0----|

G|---------------------------------|---------------------------------|
D|---------------------------------|---------------------------------|
A|----------------2---2---2---2----|---------------------------------|
E|2---2---2---2--------------------|0---0---0---0---0---0---0---0----|

G|---------------------------------|---------------------------------|
D|---------------------------------|---------------------------------|
A|----------------2---2---2---2----|---------------------------------|
E|2---2---2---2--------------------|0---0---0---0---0---0---0---0-/--|

Solo :
G|---------------------------------|---------------------------------|
D|---------------------------------|---------------------------------|
A|---------------------------------|---------------------------------|
E|7---7---7---7---7---7---7---7----|7---7---7---7---7---7---7---7----|

G|---------------------------------|---------------------------------|
D|---------------------------------|--------5------------------------|
A|0---0---0---0---0---0---0---0----|0---0-----------7-------5---\----|
E|---------------------------------|---------------------------------|

G|---------------------------------|---------------------------------|
D|---------------------------------|--------7------------------------|
A|2---2---2---2---2---2---2---2----|2---2-----------9-------7---\----|
E|---------------------------------|---------------------------------|

G|---------------------------------|---------------------------------|
D|7---7---7---7---7---7---7---7----|7---7---5---------------7--------|
A|---------------------------------|----------------7----------------|
E|---------------------------------|---------------------------------|

G|---------------------------------|---------------------------------|
D|---------------------------------|---------------------------------|
A|2---2---2---1---2---2---2---1----|2---2---2---2---2---2---2---1----|
E|---------------------------------|---------------------------------|

G|---------------------------------|---------------------------------|
D|---------------------------------|---------------------------------|
A|2---2---2---2---2---2---2---2----|2---2---2---2---2-------2--------|
E|---------------------------------|---------------------------------|

Chorus :
G|---------------------------------|---------------------------------|
D|---------------------------------|---------------------------------|
A|---------------------------------|---------------------------------|
E|0---0---0---0---0---0---0---0----|0---0---0---0---0---0---0---0----|

G|---------------------------------|---------------------------------|
D|---------------------------------|---------------------------------|
A|---------------------------------|---------------------------------|
E|0---0---0---0---0---0---0---0----|0---0---0---0---0---0---0---0----|

G|---------------------------------|---------------------------------|
D|7---7---7---7---7---7---7---7----|7---7---7---7---7---7---7---7----|
A|---------------------------------|---------------------------------|
E|---------------------------------|---------------------------------|

G|---------------------------------|---------------------------------|
D|---------------------------------|---------------------------------|
A|---------------------------------|---------------------------------|
E|0---0---0---0---0---0---0---0----|0---0---0---0---0---0---0---0----|

G|---------------------------------|---------------------------------|
D|---------------------------------|---------------------------------|
A|----------------2---2---2---2----|---------------------------------|
E|2---2---2---2--------------------|0---0---0---0---0---0---0---0----|

G|---------------------------------|---------------------------------|
D|---------------------------------|---------------------------------|
A|----------------2---2---2---2----|---------------------------------|
E|2---2---2---2--------------------|0---0---0---0---0---0---0---0----|

Chorus :
G|---------------------------------|---------------------------------|
D|---------------------------------|---------------------------------|
A|---------------------------------|---------------------------------|
E|0--------------------------------|0--------------------------------|

G|---------------------------------|---------------------------------|
D|---------------------------------|---------------------------------|
A|---------------------------------|---------------------------------|
E|0--------------------------------|---------------------------------|

G|---------------------------------|---------------------------------|
D|---------------------------------|---------------------------------|
A|---------------------------------|---------------------------------|
E|5---5---5---5---5---5---5---5----|5---5---5---5---5---5---5---5----|

G|---------------------------------|---------------------------------|
D|---------------------------------|---------------------------------|
A|---------------------------------|---------------------------------|
E|0---0---0---0---0---0---0---0----|0---0---0---0---0---0---0---0----|

G|---------------------------------|---------------------------------|
D|---------------------------------|---------------------------------|
A|----------------2---2---2---2----|---------------------------------|
E|2---2---2---2--------------------|0---0---0---0---0---0---0---0----|

G|---------------------------------|---------------------------------|
D|---------------------------------|---------------------------------|
A|----------------2---2---2---2----|---------------------------------|
E|2---2---2---2--------------------|0---0---0---0---0---0---0---0----|

G|---------------------------------|---------------------------------|
D|---------------------------------|---------------------------------|
A|----------------2---2---2---2----|---------------------------------|
E|2---2---2---2--------------------|0---0---0---0---0---0---0---0----|

G|---------------------------------|---------------------------------|
D|---------------------------------|---------------------------------|
A|----------------2---2---2---2----|---------------------------------|
E|2---2---2---2--------------------|0---0---0---0---0---0---0---0----|

Tempo change

Outro :
G|---------------------------------|---------------------------------|
D|---------------------------------|---------------------------------|
A|---------------------------------|---------------------------------|
E|0---0---0-------5-------7---\----|2-------2---2-------2---2--------|

G|---------------------------------|---------------------------------|
D|---------------------------------|---------------------------------|
A|----------------2-------2---2----|----2---2-------2---2-------2----|
E|2---2-------2--------------------|---------------------------------|

G|---------------------------------|---------------------------------|
D|---------------------------------|---------------------------------|
A|---------------------------------|---------------------------------|
E|0-----------4-----------5--------|----6-----------7-----------1----|

G|---------------------------------|---------------------------------|
D|---------------------------------|---------------------------------|
A|---------------------------------|---------------------------------|
E|0--------------------------------|---------------------------------|

Finish the song with some 0’s of E
Suggest correction
Creating personal tab
Creating personal tab
You can edit any tab online and save it as your Personal.

You can edit, replace or remove any tab part or add personal notes – all changes will be seen only by you.

Personal tabs can be accessed anytime from any device, even offline.
Learn more »
Give kudos to tab author, rate the tab!
1 2 3 4 5
comments
print report bad tab
guest
You may want to rate the tab now too:
select rating
Wanna post a correction for this tab? Suggest correction