Oops, an error
Loading. Please wait.

Picassos Last Words Drink To Me bass

31 views 1 this week
no commentswrite comment
1 2 3 4 5
3 more votes to show rating
add to favorites
×
Save as Personal and add changes to this tab that will be seen only by you. Learn more ›
×
You can save this tab as Personal to edit and correct it or add notes. All changes will be seen only by you. Learn more »
launch autoscroll
font size
0
reset
guitar tuner
edit
Autoscroll
slow
fast
+/-
esc
set tempo
stop
[Verse]
G|---------------------------------|---------------------------------|
D|---------------------------------|3---------------5----------------|
A|----------------5-----------\----|---------------------------------|
E|3--------------------------------|---------------------------------|

G|---------------------------------|---------------------------------|
D|---------------------------------|---------------------------------|
A|----------------2-------3---/----|5--------------------------------|
E|3--------------------------------|---------------------------------|

G|---------------------------------|---------------------------------|
D|---------------------------------|7--------------------------------|
A|----------------7----------------|---------------------------------|
E|5--------------------------------|----------------5----------------|

G|---------------------------------|---------------------------------|
D|---------------------------------|---------------------------------|
A|5---------------5-----------\----|---------------------------------|
E|---------------------------------|3--------------------------------|

[Chorus]
G|---------------------------------|---------------------------------|
D|---------------------------------|---------------------------------|
A|---------------------------------|---------------------------------|
E|3--------------------------------|0---------------5----------------|

G|---------------------------------|---------------------------------|
D|5--------------------------------|5--------------------------------|
A|---------------------------------|---------------------------------|
E|---------------------------------|---------------------------------|

G|---------------------------------|---------------------------------|
D|5---------------4----------------|----------------7----------------|
A|---------------------------------|7--------------------------------|
E|---------------------------------|---------------------------------|

G|---------------------------------|5---------------------------5----|
D|---------------------------------|---------------------------------|
A|---------------------------------|---------------------------------|
E|3--------------------------------|---------------------------------|

G|---------------|
D|5---5----------|
A|---------------|
E|---------------|

[Bridge]
G|---------------------------------|---------------------------------|
D|---------------------------------|---------------------------------|
A|---------------------------------|7--------------------------------|
E|7--------------------------------|----------------7--------------/-|

G|---------------------------------|---------------------------------|
D|---------------------------------|---------------------------------|
A|------------8---9----------------|7--------------------------------|
E|7-----------------------7---\----|----------------7----------------|

G|---------------------------------|---------------------------------|
D|---------------------------------|---------------------------------|
A|---------------------------------|----------------5---/---7--------|
E|5---------------5-------5--------|3--------------------------------|

G|---------------------------------|---------------------------------|
D|---------------------------------|----------------------2-3-----4--|
A|2--\----2--\----2--\----2--------|0-----2-3-----4-5----------------|
E|---------------------------------|---------------------------------|

[Chorus]
G|---------------------------------|---------------------------------|
D|5-------\------------------------|2--------------------------------|
A|----------------2----------------|----------------0---/---5--\-----|
E|---------------------------------|---------------------------------|

G|---------------------------------|---------------------------------|
D|---------------------------------|5--------------------------------|
A|----------------5----------------|----------------5----------\-----|
E|3--------------------------------|---------------------------------|

G|---------------------------------|---------------------------------|
D|---------------------------------|---------------------------------|
A|----------------2-------5--------|7---------------0-------2---\----|
E|3--------------------------------|---------------------------------|

G|---------------------------------|---------------------------------|
D|---------------------------------|---------------------------------|
A|----------------5----------------|3---------------2-------1--------|
E|3--------------------------------|---------------------------------|

G|---------------------------------|
D|---------------------------------|
A|0---------------5----------------|
E|---------------------------------|

[Interlude]
G|---------------------------------|---------------------------------|
D|----------------8----------------|6--------------------------------|
A|6--------------------------------|----------------6-------8---\----|
E|---------------------------------|---------------------------------|

G|---------------------------------|---------------------------------|
D|---------------------------------|6--------------------------------|
A|6--------------------------------|--------8-------6----------------|
E|----------------6----------------|------------------------8---\----|

G|---------------------------------|---------------------------------|
D|3--------------------------------|------------------------5--------|
A|----------------3----------------|1-------------4/5----------------|
E|---------------------------------|---------------------------------|

G|---------------------------------|---------------------------------|
D|3---------------5-------7--------|8---------7--6--5-----------\----|
A|---------------------------------|---------------------------------|
E|---------------------------------|---------------------------------|

[Medley]
G|---------------------------------|---------------------------------|
D|---------------------------------|---------------------------------|
A|---------------------------------|---------------------------------|
E|---------------------------------|---------------------------------|

G|---------------------------------|---------------------------------|
D|---------------------------------|---------------------------------|
A|---------------------------------|---------------------------------|
E|---------------------------------|---------------------------------|

G|---------------------------------|---------------------------------|
D|---------------------------------|---------------------------------|
A|------------------------2---3----|---------------------------------|
E|---------------------------------|---------------------------------|

G|---------------------------------|---------------------------------|
D|---------------------------------|---------------------------------|
A|---------------------------------|---------------------------------|
E|3--------------------------------|------------------------2---3----|

G|---------------------------------|---------------------------------|
D|---------------------------------|---------------------------------|
A|---------------------------------|---------------------------------|
E|---------------------------------|---------------------------------|

G|---------------------------------|---------------------------------|
D|---------------------------------|---------------------------------|
A|2--------------------------------|---------------------------------|
E|---------------------------------|---------------------------------|

G|---------------------------------|---------------------------------|
D|---------------------------------|---------------------------------|
A|0-----------------------2---3----|---------------------------------|
E|---------------------------------|---------------------------------|

G|---------------------------------|---------------------------------|
D|---------------------------------|---------------------------------|
A|---------------------------------|---------------------------------|
E|3--------------------------------|------------------------2---3----|

G|---------------------------------|---------------------------------|
D|---------------------------------|---------------------------------|
A|---------------------------------|---------------------------------|
E|---------------------------------|---------------------------------|

G|---------------------------------|---------------------------------|
D|---------------------------------|------------------------0--------|
A|------------------------2--------|2-----------2--------------------|
E|3--------------------------------|---------------------------------|

G|---------------------------------|---------------------------------|
D|2--------------------------------|---------------------------------|
A|------------------------2--------|0-----------0-----------5--------|
E|---------------------------------|---------------------------------|

G|---------------------------------|---------------------------------|
D|---------------------------------|---------------------------------|
A|------------------------2--------|5-----------5-----------5--------|
E|3--------------------------------|---------------------------------|

G|---------------------------------|---------------------------------|
D|5--------------------------------|------------------------5--\-----|
A|---------------------------------|5---5---5-----5/7----------------|
E|---------------------------------|---------------------------------|

G|---------------------------------|---------------------------------|
D|---------------------------------|--------------------0---2--------|
A|------------------------5---\----|2-----------2--------------------|
E|3-----------3--------------------|---------------------------------|

G|---------------------------------|---------------------------------|
D|2-----------2--------------------|---------------------------------|
A|---------------------------------|0---0-------0-----------5--\-----|
E|---------------------------------|---------------------------------|

G|---------------------------------|---------------------------------|
D|---------------------------------|------------------------5--------|
A|-----------------------/7--------|5---------------5---7------------|
E|3--------------------------------|---------------------------------|

G|---------------------------------|------------------------7---9----|
D|5-----------5--------------------|5-------------5/9----------------|
A|---------------------------------|---------------------------------|
E|---------------------------------|---------------------------------|

G|7-----------7---7-------7-/-12---|----9---------------9---9---7---|
D|--------------------9------------|--------------------------------|
A|---------------------------------|--------------------------------|
E|---------------------------------|--------------------------------|

G|--------7-------7-------7---9----|----------------9-----------|
D|9-------------------9------------|------------9-------9---8---|
A|---------------------------------|----------------------------|
E|---------------------------------|----------------------------|

G|---------------------------------|----------------------------7----|
D|7---\-------7---5---7---5---7----|---/9---7---5-----------9--------|
A|---------------------------------|---------------------------------|
E|---------------------------------|---------------------------------|

G|9---7---7-------7---9------|----------------------------7----|
D|------------9-------------/|9----------------------/9--------|
A|---------------------------|---------------------------------|
E|---------------------------|---------------------------------|

G|9-----------7-------7h9----------|---/9---7-------7-/-9---7--------|
D|---------------------------------|9-----------9---------------7-\--|
A|---------------------------------|---------------------------------|
E|---------------------------------|---------------------------------|

G|---------------------------------|---------------------------------|
D|5--------------------------------|----------------5----------------|
A|---------------------------------|5--------------------------------|
E|---------------------------------|---------------------------------|

G|---------------------------------|2--------------------------------|
D|----------------2----------------|---------------------------------|
A|3--------------------------------|----------------0-------5--------|
E|---------------------------------|---------------------------------|

G|---------------------------------|---------------------------------|
D|------------/-7-5----------------|---------------------------------|
A|3--------------------------------|3--------------------------------|
E|---------------------------------|------------------------3--------|


G|---------------------------------|---------------------------------|
D|--------2---3---5-\--------------|----------------2----------------|
A|3--------------------------------|3--------------------------------|
E|------------------------3--------|---------------------------------|

G|2--------------------------------|---------------------------------|
D|----------------------2-3-/---5--|----------------5----------------|
A|------------7---5----------------|3--------------------------------|
E|---------------------------------|---------------------------------|

G|---------------------------------|---------------------------------|
D|---------------------------------|----------------5-----------/-8--|
A|8---------------7-------6--------|5--------------------------------|
E|---------------------------------|---------------------------------|

[Interlude]
G|---------------------------------|---------------------------------|
D|---------------------------------|6-------6------------------------|
A|6-------6-------6-------6--------|----------------8-------6---\----|
E|---------------------------------|---------------------------------|

G|---------------------------------|---------------------------------|
D|---------------------------------|6--------------------------------|
A|6-------6---------------6--------|--------8-------6----------------|
E|----------------6----------------|------------------------8--------|

G|---------------------------------|---------------------------------|
D|---------------------------------|-----------------------/5--------|
A|8-------8---------------8--------|---------------/5----------------|
E|---------------------------6--7--|6-------8------------------------|

G|---------------------------------|---------------------------------|
D|3-------3-----3/5-------7--------|8---------------5----------------|
A|---------------------------------|---------------------------------|
E|---------------------------------|----------------------3-5--------|

[Medley] tempo change
G|---------------------------------|---------------------------------|
D|---------------------------------|------------3---3---3---3---3-/--|
A|---------------------------------|---------------------------------|
E|1--------------------------------|---------------------------------|

G|---------------------------------|---------------------------------|
D|5-------5------------------------|------------------------5--------|
A|------------1--------------------|--------1---1--/5----------------|
E|---------------------------------|---------------------------------|

G|---------------------------------|---------------------------------|
D|3-----------3--------------------|---------------------------------|
A|----------------------------6----|3--\-----------------------------|
E|---------------------------------|------------1-------1---1--------|

G|---------------------------------|---------------------------------|
D|---------------------------------|5-------5---5---5----/--9--------|
A|1-----------1----------------/3--|---------------------------------|
E|---------------------------------|---------------------------------|

G|---------------------------------|---------------------------------|
D|--------------------------/-5----|5----------------------/5--------|
A|3---------------3----------------|------------7---7----------------|
E|---------------------------------|---------------------------------|

G|---------------------------------|---------------------------------|
D|7-----------7---7---5------------|--------0---2---3-------5--------|
A|------------------------7-\-3----|0---3----------------------------|
E|---------------------------------|---------------------------------|

G|---------------------------------|---------------------------------|
D|5---\-------------------3--------|---------------------------------|
A|----------------------------3----|---------------------------------|
E|---------------------------------|---------------------------------|

G|---------------------------------|---------------------------------|
D|---------------------------------|---------------------------------|
A|3-----------------------5--------|---------------------------------|
E|----------------------------3----|---------------------------------|

Repeat this :
G|---------------------------------|---------------------------------|
D|------------------------3--------|---------------------------------|
A|5---------------------------3----|---------------------------------|
E|---------------------------------|---------------------------------|

G|---------------------------------|---------------------------------|
D|---------------------------------|---------------------------------|
A|3-----------------------5--------|---------------------------------|
E|----------------------------3----|---------------------------------|

***********************************
/ = slide up
\ = slide down
h = hammer on
***********************************

            
            
Suggest correction
Creating personal tab
Creating personal tab
You can edit any tab online and save it as your Personal.

You can edit, replace or remove any tab part or add personal notes – all changes will be seen only by you.

Personal tabs can be accessed anytime from any device, even offline.
Learn more »
Give kudos to tab author, rate the tab!
1 2 3 4 5
comments
print report bad tab
guest
You may want to rate the tab now too:
select rating
Wanna post a correction for this tab? Suggest correction