Oops, an error
Loading. Please wait.

Queenie Eye Bass Tab

10 views 3 this week
no commentswrite comment
1 2 3 4 5
3 more votes to show rating
add to favorites
launch autoscroll
font size
0
reset
guitar tuner
Autoscroll
slow
fast
+/-
esc
set tempo
stop
Help us to improve Ultimate-Guitar.com Take our survey!
×
Author
Difficulty
intermediate
Verse 1 :
G|---------------------------------|---------------------------------|
D|---------------------------------|---------------------------------|
A|5---5---5---5---5---5---5---5----|5---5---5---5---5---5---5-/-7----|
E|---------------------------------|---------------------------------|

G|---------------------------------|---------------------------------|
D|7---7---7---7---7---7---7---7----|---------------------------------|
A|---------------------------------|0---0---0---0---0---0---0---0----|
E|---------------------------------|---------------------------------|

G|---------------------------------|---------------------------------|
D|---------------------------------|---------------------------------|
A|5---5---5---5---5---5---5---3----|5---5---5---5---5---5---5-/-7----|
E|---------------------------------|---------------------------------|

G|---------------------------------|---------------------------------|
D|7---7---7---7---7---7---7---7----|---------------------------------|
A|---------------------------------|0---0---0---0---0---0---0---0----|
E|---------------------------------|---------------------------------|

Pre-Chorus :
G|---------------------------------|---------------------------------|
D|---------------------------------|----------------7---7---7--------|
A|---------------------------------|---------------------------------|
E|3---3-/-7-------5---5---5--------|3---3---3------------------------|

G|---------------------------------|---------------------------------|
D|8-------8-------9-------10-------|---------------------------------|
A|---------------------------------|5-------5-------5-------5--------|
E|---------------------------------|---------------------------------|

G|---------------------------------|---------------------------------|
D|---------------------------------|---------------------------------|
A|---------------------------------|---------------------------------|
E|3---3---3-------5---5---5--------|3---3---3-------5---5---5--------|

G|---------------------------------|---------------------------------|
D|8---8---8-------9-------10-------|---------------------------------|
A|---------------------------------|5---5---5---5---5---5---5-/-7----|
E|---------------------------------|---------------------------------|

G|7--------------------------------|
D|---------------------------------|
A|---------------------------------|
E|---------------------------------|

Chorus :
G|---------------------------------|---------------------------------|
D|---------------------------------|---------------------------------|
A|5---5---5---5---5---5---5---5----|5---5---5---5---5---5------------|
E|---------------------------------|------------------------8--------|

G|---------------------------------|---------------------------------|
D|7---7---7---7---7---7---7---7----|8---8---8---8---9---9---10--10---|
A|---------------------------------|---------------------------------|
E|---------------------------------|---------------------------------|

G|---------------------------------|---------------------------------|
D|---------------------------------|---------------------------------|
A|5---5---5---5---5---5---5---3----|5---5---5---5---5---5---5---\----|
E|---------------------------------|---------------------------------|

G|---------------------------------|---------------------------------|
D|---------------------------------|---------------------------------|
A|---------------------------------|---------------------------------|
E|5---5---5---5---5---5---5---5----|3---3---3---3---1---1---0---0----|

Pre-Chorus :
G|---------------------------------|---------------------------------|
D|---------------------------------|----------------7---7---7--------|
A|---------------------------------|---------------------------------|
E|3---3---3-------5---5---5--------|3---3---3------------------------|

G|---------------------------------|---------------------------------|
D|8-------8-------9-------10-------|---------------------------------|
A|---------------------------------|5-------5---3---5-------5--------|
E|---------------------------------|---------------------------------|

G|---------------------------------|---------------------------------|
D|---------------------------------|---------------------------------|
A|---------------------------------|---------------------------------|
E|3---3---3-------5---5---5--------|3---3---3-------5---5---5--------|

G|---------------------------------|---------------------------------|
D|8---------------9-------10-------|12-------------------------------|
A|---------------------------------|---------------------------------|
E|---------------------------------|---------------------------------|

Chorus :
G|---------------------------------|---------------------------------|
D|---------------------------------|---------------------------------|
A|5---5---5---5---5---5---5---5----|5---5---5---5---5---5------------|
E|---------------------------------|------------------------8--------|

G|---------------------------------|---------------------------------|
D|7---7---7---7---7---7---7---7----|8---8---8---8---9---9---10--10---|
A|---------------------------------|---------------------------------|
E|---------------------------------|---------------------------------|

G|---------------------------------|---------------------------------|
D|---------------------------------|---------------------------------|
A|5---5---5---5---5---5---5---3----|5---5---5---5---5---5---5---\----|
E|---------------------------------|---------------------------------|

G|---------------------------------|---------------------------------|
D|---------------------------------|---------------------------------|
A|---------------------------------|---------------------------------|
E|5---5---5---5---5---5---5---5----|3-------3-------1-------0--------|

A little break

Interlude : 2:36 - 2:37
G|---------------------------------|---------------------------------|
D|---------------------------------|---------------------------------|
A|---------------------------------|---------------------------------|
E|3-------3-------5-------5--------|3-------3-------5-------5--------|

G|---------------------------------|---------------------------------|
D|8-------8-------9-------10-------|---------------------------------|
A|---------------------------------|5-------5-------5-------5--------|
E|---------------------------------|---------------------------------|

G|---------------------------------|---------------------------------|
D|---------------------------------|---------------------------------|
A|---------------------------------|---------------------------------|
E|3-------3-------5-------5--------|3-------3-------5-------5--------|

G|---------------------------------|---------------------------------|
D|8-------8-------9-------10-------|---------------------------------|
A|---------------------------------|5-------5-------5-------5--------|
E|---------------------------------|---------------------------------|

G|---------------------------------|
D|---------------------------------|
A|5-------5-------5-------5--------|
E|---------------------------------|

Chorus :
G|---------------------------------|---------------------------------|
D|---------------------------------|---------------------------------|
A|5---5---5---5---5---5---5---3----|5-------5-------5-------5---\----|
E|---------------------------------|---------------------------------|

G|---------------------------------|---------------------------------|
D|---------------------------------|8---8---8---8---9---9---10--10---|
A|0-------0-------0-------0--------|---------------------------------|
E|---------------------------------|---------------------------------|

G|---------------------------------|---------------------------------|
D|---------------------------------|---------------------------------|
A|5---5---5---5---5---5---5---3----|5-------5-------5-------5---\----|
E|---------------------------------|---------------------------------|

G|---------------------------------|---------------------------------|
D|---------------------------------|8---8---8---8---9---9---10--10---|
A|0-------0-------0-------0--------|---------------------------------|
E|---------------------------------|---------------------------------|

G|---------------------------------|---------------------------------|
D|---------------------------------|---------------------------------|
A|5---5---5---5---5---5---5---5----|5-------5-------5-------5---\----|
E|---------------------------------|---------------------------------|

G|---------------------------------|---------------------------------|
D|---------------------------------|8---8---8---8---9---9---10--10---|
A|0-------0-------0-------0--------|---------------------------------|
E|---------------------------------|---------------------------------|

G|---------------------------------|---------------------------------|
D|---------------------------------|---------------------------------|
A|5-------5-------5-------5--------|5-------5-------5-------5---\----|
E|---------------------------------|---------------------------------|

G|---------------------------------|---------------------------------|
D|---------------------------------|8---8---8---8---9---9---10--10---|
A|0-------0-------0-------0--------|---------------------------------|
E|---------------------------------|---------------------------------|
Suggest correction
Give kudos to tab author, rate the tab!
1 2 3 4 5
comments
print report bad tab
guest
You may want to rate the tab now too:
select rating
Wanna post a correction for this tab? Suggest correction