Oops, an error
Loading. Please wait.

Really Love You bass

64 views 1 this week
no commentswrite comment
1 2 3 4 5
3 more votes to show rating
add to favorites
×
Save as Personal and add changes to this tab that will be seen only by you. Learn more ›
×
You can save this tab as Personal to edit and correct it or add notes. All changes will be seen only by you. Learn more »
launch autoscroll
font size
0
reset
guitar tuner
edit
Autoscroll
slow
fast
+/-
esc
set tempo
stop
Author
Difficulty
Intro :
G|---------------------------------|---------------------------------|
D|---------------------------------|---------------------------------|
A|----------------5-------7--------|----------------5---5---7--------|
E|0-----------7--------------------|0-----------7--------------------|

G|---------------------------------|---------------------------------|
D|---------------------------------|---------------------------------|
A|----------------5-------7--------|----------------5---5---7--------|
E|0-----------7--------------------|0-----------7--------------------|

Verse  1 :
G|---------------------------------|---------------------------------|
D|---------------------------------|---------------------------------|
A|------------------------5---7----|----------------5-------7--------|
E|0-----------0---7----------------|0-----------7--------------------|

G|---------------------------------|---------------------------------|
D|---------------------------------|---------------------------------|
A|----------------5---5---7--------|----------------5---5---7--------|
E|0-----------7--------------------|0-----------7--------------------|

G|---------------------------------|---------------------------------|
D|---------------------------------|---------------------------------|
A|----------------5---5---7--------|----------------5---5---7--------|
E|0-----------7--------------------|0-----------7--------------------|

G|---------------------------------|---------------------------------|
D|---------------------------------|---------------------------------|
A|----------------5---5---7--------|----------------5---5---7--------|
E|0-----------7--------------------|0-----------7--------------------|

G|---------------------------------|---------------------------------|
D|---------------------------------|---------------------------------|
A|----------------5---5---7--------|----------------5---5---7--------|
E|0-----------7--------------------|0-----------7--------------------|

G|---------------------------------|---------------------------------|
D|---------------------------------|---------------------------------|
A|----------------5---5---7--------|----------------5---5---7--------|
E|0-----------7--------------------|0-----------7--------------------|

G|---------------------------------|---------------------------------|
D|---------------------------------|---------------------------------|
A|----------------5---5---7--------|----------------5---5---7--------|
E|0-----------7--------------------|0-----------7--------------------|

G|---------------------------------|---------------------------------|
D|---------------------------------|5--------------------------------|
A|----------------5-------7--------|--------7-------5-------7--------|
E|0-------7------------------------|---------------------------------|

Chorus :
G|---------------------------------|---------------------------------|
D|----------------5---5---7--------|----------------5---5---7--------|
A|0-----------7--------------------|0-----------7--------------------|
E|---------------------------------|---------------------------------|

G|---------------------------------|---------------------------------|
D|---------------------------------|---------------------------------|
A|----------------5-------7--------|----------------5---5---7--------|
E|0-----------7--------------------|0-----------7--------------------|

G|---------------------------------|---------------------------------|
D|----------------5-------7--------|----------------5---5---7--------|
A|0-----------7--------------------|0-----------7--------------------|
E|---------------------------------|---------------------------------|

G|---------------------------------|---------------------------------|
D|9---------------7-------9--------|9---------------7---7---9--------|
A|------------9--------------------|------------9--------------------|
E|---------------------------------|---------------------------------|

Interlude :
G|---------------------------------|---------------------------------|
D|---------------------------------|---------------------------------|
A|----------------5---5---7--------|----------------5---5---7--------|
E|0-----------7--------------------|0-----------7--------------------|

G|---------------------------------|---------------------------------|
D|---------------------------------|------------7---5----------------|
A|----------------5---5---7--------|--------------------7---5--------|
E|0-----------7--------------------|0--------------------------------|

G|---------------------------------|---------------------------------|
D|---------------------------------|---------------------------------|
A|----------------5---5---7--------|----------------5---5---7--------|
E|0-----------7--------------------|0-----------7--------------------|

G|---------------------------------|---------------------------------|
D|---------------------------------|---------------------------------|
A|----------------5---5---7--------|----------------5---5---7--------|
E|0-----------7--------------------|0-----------7--------------------|

Verse 2 :
G|---------------------------------|---------------------------------|
D|---------------------------------|---------------------------------|
A|----------------5-------7--------|----------------5-------7--------|
E|0-----------7--------------------|0-----------7--------------------|

G|---------------------------------|---------------------------------|
D|---------------------------------|---------------------------------|
A|----------------5-------7--------|----------------5---5---7--------|
E|0-----------7--------------------|0-----------7--------------------|

G|---------------------------------|---------------------------------|
D|---------------------------------|---------------------------------|
A|----------------5-------7--------|----------------5---5---7--------|
E|0-----------7--------------------|0-----------7--------------------|

G|---------------------------------|---------------------------------|
D|---------------------------------|---------------------------------|
A|----------------5-------7--------|----------------5---5---7--------|
E|0-----------7--------------------|0-----------7--------------------|

G|---------------------------------|---------------------------------|
D|---------------------------------|---------------------------------|
A|----------------5---5---7--------|----------------5---5---7--------|
E|0-----------7--------------------|0-----------7--------------------|

G|---------------------------------|---------------------------------|
D|---------------------------------|---------------------------------|
A|----------------5---5---7--------|----------------5---5---7--------|
E|0-----------7--------------------|0-----------7--------------------|

G|---------------------------------|---------------------------------|
D|---------------------------------|---------------------------------|
A|----------------5---5---7--------|----------------5---5---7--------|
E|0-----------7--------------------|0-----------7--------------------|

G|---------------------------------|---------------------------------|
D|---------------------------------|5--------------------------------|
A|----------------5-------7--------|--------7-------5-------7--------|
E|0-------7------------------------|---------------------------------|

Chorus :
G|---------------------------------|---------------------------------|
D|----------------5-------7--------|----------------5---5---7--------|
A|0-----------7--------------------|0-----------7--------------------|
E|---------------------------------|---------------------------------|

G|---------------------------------|---------------------------------|
D|---------------------------------|---------------------------------|
A|----------------5-------7--------|----------------5---5---7--------|
E|0-----------7--------------------|0-----------7--------------------|

G|---------------------------------|---------------------------------|
D|----------------5-------7--------|----------------5---5---7--------|
A|0-----------7--------------------|0-----------7--------------------|
E|---------------------------------|---------------------------------|

G|---------------------------------|---------------------------------|
D|9---------------7-------9--------|9---------------7---7---9--------|
A|------------9--------------------|------------9--------------------|
E|---------------------------------|---------------------------------|

Solo :
G|---------------------------------|---------------------------------|
D|---------------------------------|---------------------------------|
A|7---------------5-------7--------|----------------5---5---7--------|
E|------------7--------------------|0-----------7--------------------|

G|---------------------------------|---------------------------------|
D|---------------------------------|---------------------------------|
A|----------------5---5---7--------|----------------5-------7--------|
E|0-----------7--------------------|0-----------7--------------------|

G|---------------------------------|---------------------------------|
D|---------------------------------|---------------------------------|
A|----------------5---5---7--------|----------------5-------7--------|
E|0-----------7--------------------|0-----------7--------------------|

G|---------------------------------|---------------------------------|
D|---------------------------------|---------------------------------|
A|----------------5-------7--------|----------------5---5---7--------|
E|0-----------7--------------------|0-----------7--------------------|

Verse 3 :
G|---------------------------------|---------------------------------|
D|---------------------------------|---------------------------------|
A|----------------5-------7--------|----------------5---5---7--------|
E|0-----------7--------------------|0-----------7--------------------|

G|---------------------------------|---------------------------------|
D|---------------------------------|---------------------------------|
A|----------------5-------7--------|----------------5---5---7--------|
E|0-----------7--------------------|0-----------7--------------------|

G|---------------------------------|---------------------------------|
D|---------------------------------|---------------------------------|
A|----------------5-------7--------|----------------5---5---7--------|
E|0-----------7--------------------|0-----------7--------------------|

G|---------------------------------|---------------------------------|
D|---------------------------------|---------------------------------|
A|----------------5-------7--------|----------------5---5---7--------|
E|0-----------7--------------------|0-----------7--------------------|

G|---------------------------------|---------------------------------|
D|---------------------------------|---------------------------------|
A|----------------5---5---7--------|----------------5-------7--------|
E|0-----------7--------------------|0-----------7--------------------|

G|---------------------------------|---------------------------------|
D|---------------------------------|---------------------------------|
A|----------------5-------7--------|----------------5-------7--------|
E|0-----------7--------------------|0-----------7--------------------|

G|---------------------------------|---------------------------------|
D|---------------------------------|---------------------------------|
A|----------------5-------7--------|----------------5-------7--------|
E|0-----------7--------------------|0-----------7--------------------|

G|---------------------------------|---------------------------------|
D|---------------------------------|5--------------------------------|
A|----------------5-------7--------|--------7-------5-------7--------|
E|0-------7------------------------|---------------------------------|

Chorus :
G|---------------------------------|---------------------------------|
D|----------------5---5---7--------|----------------5---5---7--------|
A|0-----------7--------------------|0-----------7--------------------|
E|---------------------------------|---------------------------------|

G|---------------------------------|---------------------------------|
D|---------------------------------|---------------------------------|
A|----------------5-------7--------|----------------5---5---7--------|
E|0-----------7--------------------|0-----------7--------------------|

G|---------------------------------|---------------------------------|
D|----------------5-------7--------|----------------5---5---7--------|
A|0-----------7--------------------|0-----------7--------------------|
E|---------------------------------|---------------------------------|

G|---------------------------------|---------------------------------|
D|9---------------7-------9--------|9---------------7---7---9--------|
A|------------9--------------------|------------9--------------------|
E|---------------------------------|---------------------------------|

Verse 4 :
G|---------------------------------|---------------------------------|
D|---------------------------------|---------------------------------|
A|----------------5-------7--------|----------------5---5---7--------|
E|0-----------7--------------------|0-----------7--------------------|

G|---------------------------------|---------------------------------|
D|---------------------------------|---------------------------------|
A|----------------5-------7--------|----------------5---5---7--------|
E|0-----------7--------------------|0-----------7--------------------|

G|---------------------------------|---------------------------------|
D|---------------------------------|---------------------------------|
A|----------------5-------7--------|----------------5---5---7--------|
E|0-----------7--------------------|0-----------7--------------------|

G|---------------------------------|---------------------------------|
D|---------------------------------|---------------------------------|
A|----------------5-------7--------|----------------5-------7--------|
E|0-----------7--------------------|0-----------7--------------------|

G|---------------------------------|---------------------------------|
D|---------------------------------|---------------------------------|
A|----------------5-------7--------|----------------5-------7--------|
E|0-----------7--------------------|0-----------7--------------------|

G|---------------------------------|---------------------------------|
D|---------------------------------|---------------------------------|
A|----------------5-------7--------|----------------5-------7--------|
E|0-----------7--------------------|0-----------7--------------------|

G|---------------------------------|---------------------------------|
D|---------------------------------|---------------------------------|
A|----------------5-------7--------|----------------5---5---7--------|
E|0-----------7--------------------|0-----------7--------------------|

G|---------------------------------|---------------------------------|
D|---------------------------------|5--------------------------------|
A|----------------5-------7--------|--------7-------5----------------|
E|0-------7------------------------|------------------------7--------|

Chorus :
G|---------------------------------|---------------------------------|
D|----------------5-------7--------|----------------5---5---7--------|
A|0-----------7--------------------|0-----------7--------------------|
E|---------------------------------|---------------------------------|

G|---------------------------------|---------------------------------|
D|---------------------------------|---------------------------------|
A|----------------5-------7--------|----------------5---5---7--------|
E|0-----------7--------------------|0-----------7--------------------|

G|---------------------------------|---------------------------------|
D|----------------5-------7--------|----------------5---5---7--------|
A|0-----------7--------------------|0-----------7--------------------|
E|---------------------------------|---------------------------------|

G|---------------------------------|---------------------------------|
D|9---------------7-------9--------|9---------------7---7---9--------|
A|------------9--------------------|------------9--------------------|
E|---------------------------------|---------------------------------|

Interlude :
G|---------------------------------|---------------------------------|
D|---------------------------------|---------------------------------|
A|----------------5---5---7--------|----------------5---5---7--------|
E|0-----------7--------------------|0-----------7--------------------|

G|---------------------------------|---------------------------------|
D|---------------------------------|------------7---5---7------------|
A|----------------5---5---7--------|------------------------7--------|
E|0-----------7--------------------|0--------------------------------|

G|---------------------------------|---------------------------------|
D|---------------------------------|---------------------------------|
A|----------------5---5---7--------|----------------5---5---7--------|
E|0-----------7--------------------|0-----------7--------------------|

G|---------------------------------|---------------------------------|
D|---------------------------------|------------7---5---7------------|
A|----------------5---5---7--------|------------------------7--------|
E|0-----------7--------------------|0--------------------------------|

Verse 5 :
G|---------------------------------|---------------------------------|
D|---------------------------------|---------------------------------|
A|----------------5---5---7--------|----------------5---5---7--------|
E|0-----------7--------------------|0-----------7--------------------|

G|---------------------------------|---------------------------------|
D|---------------------------------|---------------------------------|
A|----------------5-------7--------|----------------5-------7--------|
E|0-----------7--------------------|0-----------7--------------------|

G|---------------------------------|---------------------------------|
D|---------------------------------|---------------------------------|
A|----------------5-------7--------|----------------5---5---7--------|
E|0-----------7--------------------|0-----------7--------------------|

G|---------------------------------|---------------------------------|
D|---------------------------------|---------------------------------|
A|----------------5-------7--------|----------------5---5---7--------|
E|0-----------7--------------------|0-----------7--------------------|

G|---------------------------------|---------------------------------|
D|---------------------------------|---------------------------------|
A|----------------5-------7--------|----------------5---5---7--------|
E|0-----------7--------------------|0-----------7--------------------|

G|---------------------------------|---------------------------------|
D|---------------------------------|---------------------------------|
A|----------------5-------7--------|----------------5---5---7--------|
E|0-----------7--------------------|0-----------7--------------------|

G|---------------------------------|---------------------------------|
D|---------------------------------|---------------------------------|
A|----------------5-------7--------|----------------5---5---7--------|
E|0-----------7--------------------|0-----------7--------------------|

G|---------------------------------|---------------------------------|
D|---------------------------------|5--------------------------------|
A|----------------5-------7--------|--------7-------5----------------|
E|0-------7------------------------|------------------------7--------|

Chorus :
G|---------------------------------|---------------------------------|
D|----------------5-------7--------|----------------5---5---7--------|
A|0-----------7--------------------|0-----------7--------------------|
E|---------------------------------|---------------------------------|

G|---------------------------------|---------------------------------|
D|---------------------------------|---------------------------------|
A|----------------5-------7--------|----------------5---5---7--------|
E|0-----------7--------------------|0-----------7--------------------|

G|---------------------------------|---------------------------------|
D|----------------5-------7--------|----------------5---5---7--------|
A|0-----------7--------------------|0-----------7--------------------|
E|---------------------------------|---------------------------------|

G|---------------------------------|---------------------------------|
D|9---------------7-------9--------|9---------------7---7---9--------|
A|------------9--------------------|------------9--------------------|
E|---------------------------------|---------------------------------|

Interlude : 
G|---------------------------------|---------------------------------|
D|---------------------------------|---------------------------------|
A|----------------5-------7--------|----------------5---5---7--------|
E|0-----------7--------------------|0-----------7--------------------|

G|---------------------------------|---------------------------------|
D|---------------------------------|---------------------------------|
A|----------------5-------7--------|----------------5---5---7--------|
E|0-----------7--------------------|0-----------7--------------------|

G|---------------------------------|---------------------------------|
D|---------------------------------|---------------------------------|
A|----------------5-------7--------|----------------5---5---7--------|
E|0-----------7--------------------|0-----------7--------------------|

G|---------------------------------|---------------------------------|
D|---------------------------------|---------------------------------|
A|----------------5-------7--------|----------------5---5---7--------|
E|0-----------7--------------------|0-----------7--------------------|

Outro (Repeat) :
G|---------------------------------|---------------------------------|
D|---------------------------------|---------------------------------|
A|----------------5-------7--------|----------------5---5---7--------|
E|0-----------7--------------------|0-----------7--------------------|

            
            
Suggest correction
Creating personal tab
Creating personal tab
You can edit any tab online and save it as your Personal.

You can edit, replace or remove any tab part or add personal notes – all changes will be seen only by you.

Personal tabs can be accessed anytime from any device, even offline.
Learn more »
Give kudos to tab author, rate the tab!
1 2 3 4 5
comments
print report bad tab
guest
You may want to rate the tab now too:
select rating
Wanna post a correction for this tab? Suggest correction