Oops, an error
Loading. Please wait.

Run Devil Run bass

version 2
version 2

Whole song

600 views 3 this week
no commentswrite comment
1 2 3 4 5
2 more votes to show rating
add to favorites
×
Save as Personal and add changes to this tab that will be seen only by you. Learn more ›
×
You can save this tab as Personal to edit and correct it or add notes. All changes will be seen only by you. Learn more »
launch autoscroll
font size
0
reset
guitar tuner
edit
Autoscroll
slow
fast
+/-
esc
set tempo
stop
Author
    -----------------------------------------------------------

    PAUL McCARTNEY - RUN DEVIL RUN (P McCartney) From RUN DEVIL
                     RUN album. Released on October, 5th, 1999.
   
    -----------------------------------------------------------

    Bass tab by:PJVillanueva




                   INTRO 
    Run devil run, the angels having fun
    Making winners out of sinners better leave before it's done
    When he gets through, he'll be coming after you,
    Listen what I'm saying to you Run ... Run Devil Run

                   VERSE
    By a swamp in Alabama in the cold in the damp
    Sittin reading by the light of a kerosene lamp
    Lives a holly roller with a mission on her mind
    Got to spread the word to anybody she can find
    You can hear her screaming any time in night or day
    This is what she says to keep the demons away

                   CHORUS
    Run devil run, the angels having fun
    Making winners out of sinners better leave before it's done
    When he gets through, he'll be coming after you,
    Listen what I'm saying to you Run ... Run Devil Run

                   VERSE
    Her brother and her sister said that she brought them down
    Steppin on the bus that was heading to town
    There they started drinking, they got into a fight
    The sheriff introduced them to the jailhouse for a night
    When the holy roller came to town to pay the bail
    This is what she sang as she was leaving the jail

                   CHORUS

                   SOLO

                   VERSE
    Well from the middle of the summer they were back in the shack
    Picking cotton for a livin keep 'em on the right track
    Visiting the neighbours trying to spread the good news
    Singing gospel music with a hint of the blues
    All of them determined to deliver the goods
    Now you hear the music comin out on the woods

                   CHORUS

    Ah you'd better Run ... Run Devil Run
    You better Run ... Run Devil Run 



 

   G|------- ------- ------- -------|------- ------- ------- -------|
   D|-------------------------------|-------------------------------|
   A|-------------------------------|-------------------------------|
   E|-------------------------------|-------------------------------|
     Run     devil   run,        the angels  having  fun     Making



   G|------- ------- ------- -------|------- ------- ------- -------|
   D|-------------------------------|-------------------------------|
   A|-------------------------------|-------------------------------|
   E|-------------------------------|-------------------------------|
     winners out     sinners better  leave       it's 
                 of                      before      done

     00:05
   G|------- ------- ------- -------|------- ------- ------- -------|
   D|--------1-------4---4---1---4--|--------1-------4---4---1------|
   A|2------------------------------|2------------------------------|
   E|-------------------------------|-------------------------------|
     When    gets    through he'll   coming  after   you
         he                      be


   G|------- ------- ------- -------|------- ------- ------- -------|
   D|2------------------------------|-------------------------------|
   A|--------4-------2---2-------2--|0------------------------------|
   E|------------------------4------|----------------3--------------|
     Listen  what    saying  to  you Run ... 
                 I'm 

    (.
   G|------- ------- ------- -------|------- ------- ------- -------|
   D|-------------------------------|----------------------------2--|
   A|0------------------------------|----------------2---2---4------|
   E|-------------------------------|0-------4----------------------|
                     Run     Devil   Run



   G|------- ------- ------- -------|
   D|2---2--------------------------|
   A|--------4-------2--------------|
   E|------------------------4------|
                             By  a


     00:15
   G|------- ------- ------- -------|------- ------- ------- -------|
   D|-------------------------------|-------------------------------|
   A|7-------7---7---7---7---7------|7-------7-------7---7----------|
   E|-------------------------------|-------------------------------|
     swamp   Alabama         in  the cold    in  the damp    Sittin' 
         in


   G|------- ------- ------- -------|------- ------- ------- -------|
   D|-------------------------------|-------------------------------|
   A|7-------------------7---7---7--|7-------7-----------7---7------|
   E|-------------------------------|-------------------------------|
     reading by the  light   of  a   kerosene        lamp


     00:21
   G|------- ------- ------- -------|------- ------- ------- -------|
   D|----7---7---7---7---7---7------|7-------7-------7---7---7---7--|
   A|-------------------------------|-------------------------------|
   E|5------------------------------|-------------------------------|
     Lives   holly   roller  with    mission on  her mind
         a                       a


   G|------- ------- ------- -------|------- ------- ------- -------|
   D|-------------------------------|-------------------------------|
   A|7-------7---7-------7---7---7--|7-------7-------7---7-------7--|
   E|-------------------------------|-------------------------------|
    Got to  spread  word    anybody         she can find
                the     to


   G|------- ------- ------- -------|------- ------- ------- -------|
   D|-------------------------------|-------------------------------|
   A|-------------------------------|-------------------------------|
   E|7---7---7---7---7---7---7---7--|7---7---7---7---7---7-------7--|
    You can hear    screaming       time    night   day
                her         any         in      or


   G|------- ------- ------- -------|------- ------- ------- -------|
   D|-------------------------------|-------------------------------|
   A|7-------7-----------7-------7--|7-------7---7---7-------7------|
   E|-------------------------------|----------------------------0--|
      This    what   says to  keep    demons  away                Run
        is      she             the



     00:32
   G|------- ------- ------- -------|------- ------- ------- -------|
   D|----------------------------2--|----2--------------------------|
   A|----------------2-------4------|--------4---4---2---2-------2--|
   E|----0---4----------------------|------------------------4------|
             devil   run,        the angels  having  fun     Making 



   G|------- ------- ------- -------|------- ------- ------- -------|
   D|-------------------------------|2---2--------------------------|
   A|----------------2---2---4---4--|--------4---4---2---2-------2--|
   E|0---0---4---4------------------|------------------------4------|
     winners out of  sinners better  leave       it's 
                                         before      done


   G|------- ------- ------- -------|------- ------- ------- -------|
   D|--------1-------4-------1---4--|--------1-------4---4---1------|
   A|2------------------------------|2---2--------------------------|
   E|-------------------------------|-------------------------------|
     When    gets    through he'll   coming  after   you
         he                      be


   G|------- ------- ------- -------|------- ------- ------- -------|
   D|2------------------------------|-------------------------------|
   A|--------4-------2---2-------2--|0------------------------------|
   E|------------------------4------|----------------3--------------|
     Listen  what    saying  to  you Run ... 
                 I'm  

    (.
   G|------- ------- ------- -------|
   D|-------------------------------|
   A|0------------------------------|
   E|-------------------------------|
                     Run     Devil  



   G|------- ------- ------- -------|------- ------- ------- -------|
   D|----------------------------2--|2---2--------------------------|
   A|----------------2---2---4------|--------5-\-4---2---2----------|
   E|0-------2-/-4------------------|------------------------4---4--|
     Run                                                         Her



     00:47
   G|------- ------- ------- -------|------- ------- ------- -------|
   D|-------------------------------|-------------------------------|
   A|7-------7---7---7-------7---7--|7---7---7-----------7---7------|
   E|-------------------------------|-------------------------------|
     brother and her sister  said    she     brought down
                                 that            them 


   G|------- ------- ------- -------|------- ------- ------- -------|
   D|-------------------------------|-------------------------------|
   A|7-------7-----------7-------7--|7-------7-----------7-------7--|
   E|-------------------------------|-------------------------------|
     Steppin on the  bus t   hat was heading to  town            There



   G|------- ------- ------- -------|------- ------- ------- -------|
   D|-------------------------------|-------------------------------|
   A|0---0---0---0---0---0-------0--|0---0---0---0---0---0-------0--|
   E|-------------------------------|-------------------------------|
         they        drinking,   they    into    a   fight       The
             started                 got


   G|------- ------- ------- -------|------- ------- ------- -------|
   D|-------------------------------|-------------------------------|
   A|7-------7---7---7---7---7------|7-------7-----------7---7------|
   E|-------------------------------|-------------------------------|
     sheriff introduced  them    the jailhouse   for night
                             to                    a 


   G|------- ------- ------- -------|------- ------- ------- -------|
   D|-------------------------------|-------------------------------|
   A|-------------------------------|-------------------------------|
   E|7---7---7---7---7---7---7---7--|7---7---7---7---7---7-------7--|
     When    holy    roller  came    town    pay the bail
         the                     to      to


   G|------- ------- ------- -------|------- ------- ------- -------|
   D|-------------------------------|-------------------------------|
   A|7-------7-----------7----------|7---7---7---7-------7----------|
   E|-------------------------------|----------------------------0--|
     This    what    sang    she was leaving the jail.           Run
         is      she     as


     01:03                                                         
   G|------- ------- ------- -------|------- ------- ------- -------|
   D|----------------------------2--|----2--------------------------|
   A|----------------2-------4------|--------4---4---2-----------2--|
   E|--------4----------------------|------------------------4------|
             devil   run,        the angels  having  fun     Making 



   G|------- ------- ------- -------|------- ------- ------- -------|
   D|-------------------------------|2---2--------------------------|
   A|----------------2-------4------|--------4---4---2---2-------2--|
   E|0---0---4---4------------------|------------------------4------|
     winners out of  sinners better  leave       it's 
                                         before      done


   G|------- ------- ------- -------|------- ------- ------- -------|
   D|--------1-------4---4---1---4--|--------1-------4---4---1------|
   A|2---2--------------------------|2---2--------------------------|
   E|-------------------------------|-------------------------------|
     When    gets    through he'll   coming  after   you
         he                      be


   G|------- ------- ------- -------|------- ------- ------- -------|
   D|2------------------------------|-------------------------------|
   A|--------4---4---2---2-------2--|0------------------------------|
   E|------------------------4------|----------------3--------------|
     Listen  what    saying  to  you Run ... 
                 I'm  

    (.
   G|------- ------- ------- -------|
   D|-------------------------------|
   A|0------------------------------|
   E|-------------------------------|
                     Run     Devil 
 


   G|------- ------- ------- -------|------- ------- ------- -------|
   D|----------------------------2--|-------------------------------|
   A|----------------2---2---4------|-------------------------------|
   E|0-------2-/-4------------------|0---0---2---2---3---3---4---4--|
     Run


     SOLO
     01:18    
   G|------- ------- ------- -------|------- ------- ------- -------|
   D|----------------2---2-------2--|----------------2-----------2--|
   A|0-------4---------------4------|0---0---4---------------4------|
   E|-------------------------------|-------------------------------|




   G|------- ------- ------- -------|------- ------- ------- -------|
   D|----------------------------2--|2---2--------------------------|
   A|----------------2-------4------|--------4-------2-----------2--|
   E|0---0---4----------------------|------------------------4------|




   G|------- ------- ------- -------|------- ------- ------- -------|
   D|----------------2---2-------2--|----------------2---2-------2--|
   A|0---0---4---------------4------|0-------4---------------4------|
   E|-------------------------------|-------------------------------|




   G|------- ------- ------- -------|------- ------- ------- -------|
   D|-------------------------------|-------------------------------|
   A|-------------------------------|-------------------------------|
   E|7-------7---7---7---7-------7--|7---7---7---7---7---7---6------|



     PIANO SOLO
     01:29
   G|------- ------- ------- -------|------- ------- ------- -------|
   D|------------------------4---7--|--------4----------------------|
   A|--------4-------7---7----------|----------------7---7---4---7--|
   E|5------------------------------|-------------------------------|




   G|------- ------- ------- -------|------- ------- ------- -------|
   D|-------------------------------|----------------------------2--|
   A|7-------4----------------------|----------------2---2---4------|
   E|----------------7---7---4---7--|0-------4----------------------|




   G|------- ------- ------- -------|------- ------- ------- -------|
   D|----------------2---2-------2--|----------------2-----------2--|
   A|0-------4---------------4------|0-------4----------------------|
   E|-------------------------------|-------------------------------|




   G|------- ------- ------- -------|------- ------- ------- -------|
   D|-------------------------------|-------------------------------|
   A/2------------------------------|-------------------------------|
   E|-------------------------------|-------------------------------|



     (Pick scratches ...)
   G|------- ------- ------- -------|------- ------- ------- -------|
   D|-------------------------------|-------------------------------|
   A|-------------------------------|-------------------------------|
   E|-------------------------------|-------------------------------|
                                                Well    from     the

    
     01:43
   G|------- ------- ------- -------|------- ------- ------- -------|
   D|-------------------------------|-------------------------------|
   A|7-------7-------7---7---7------|7-------7-----------7----------|
   E|-------------------------------|-------------------------------|
     middle  of  the summer  they    back    in  the shack   Picking
                                 were   


   G|------- ------- ------- -------|------- ------- ------- -------|
   D|-------------------------------|-------------------------------|
   A|7---7---7-------7---7---7---7--|7-------7-----------7---7------|
   E|-------------------------------|-------------------------------|
     cotton  for a   livin   keep    on  the right   track
                                 'em


   G|------- ------- ------- -------|------- ------- ------- -------|
   D|-------------------------------|-------------------------------|
   A|0---0---0---0---0---0---0---0--|0---0---0---0---0---0-------0--|
   E|-------------------------------|-------------------------------|
     Visiting    the neighbours  to  spread  good 
                             trying      the     news


   G|------- ------- ------- -------|------- ------- ------- -------|
   D|-------------------------------|-------------------------------|
   A|7-------7---7---7-------7---7--|7-------7-------7-------7------|
   E|-------------------------------|-------------------------------|
     Singing gospel  music   with    hint    the blues           All
                                 a       of


   G|------- ------- ------- -------|------- ------- ------- -------|
   D|--------------------9----------|----9---------------9-------9--|
   A|-------------------------------|-------------------------------|
   E|7---7---7---7---7-----------7--|7-------7---7---7-------7------|
         of  them            to  deliver     the goods
                 determined


   G|------- ------- ------- -------|------- ------- ------- -------|
   D|-------------------------------|-------------------------------|
   A|7-------7---7---7---7----------|7-------7---7---7--------------|
   E|-------------------------------|----------------------------0--|
     Now you hear    music   comin   out on  the woods.          Run
                 the
     

     02:00                                                 
   G|------- ------- ------- -------|------- ------- ------- -------| 
   D|-------------------------------|2---2---2----------------------|
   A|----------------2-------4---4--|------------4---2---2-------2--|
   E|--------4----------------------|------------------------4------|
             devil   run,        the angels  having  fun     Making 



   G|------- ------- ------- -------|------- ------- ------- -------|
   D|-------------------------------|2---2--------------------------|
   A|----------------2---2---4---4--|--------4---4---2---2-------2--|
   E|0---0---4---4------------------|------------------------4-/----|
     winners out of  sinners better  leave       it's 
                                         before      done


   G|------- ------- ------- -------|------- ------- ------- -------|
   D|--------1---1---4---4---1---4--|--------1---1---4---4---1---1--|
   A|2---2--------------------------|2---2--------------------------|
   E|-------------------------------|-------------------------------|
     When    gets    through he'll   coming  after   you
         he                      be


   G|------- ------- ------- -------|------- ------- ------- -------|
   D|2------------------------------|-------------------------------|
   A|--------4---4---2---2-------2--|0------------------------------|
   E|------------------------4------|----------------3--------------|
     Listen  what    saying  to  you Run ... 
                 I'm  


    (.                               02:12
   G|------- ------- ------- -------|------- ------- ------- -------|
   D|-------------------------------|----------------------------2--|
   A|0------------------------------|----------------2---2---4------|
   E|-------------------------------|0-------2-/-4------------------|
                     Run     Devil   Run
 


   G|------- ------- ------- -------|------- ------- ------- -------|
   D|2------------------------------|-------------------------------|
   A|--------4---4---2---2----------|0------------------------------|
   E|------------------------4------|----------------3--------------|
                 Ah  you'd           run ...
                         better

    (.
   G|------- ------- ------- -------|------- ------- ------- -------|
   D|-------------------------------|-------------------------------|
   A|0------------------------------|----------------2---2---4------|
   E|-------------------------------|0-------2-/-4------------------|
                     Run     Devil   Run 



   G|------- ------- ------- -------|------- ------- ------- -------|
   D|2------------------------------|-------------------------------|
   A|--------4---4---2---2----------|0------------------------------|
   E|------------------------4------|----------------3--------------|
                     You'd           run ...
                             better

    (.
   G|------- ------- ------- -------|------- ------- ------- -------|
   D|-------------------------------|2------------------------------|
   A|0------------------------------|--------4-------2-----------2--|
   E|-------------------------------|------------------------4------|
                     Run     Devil   Run



   G|------- ------- ------- -------|------- ------- ------- -------|
   D|----------------------------2--|2------------------------------|
   A|----------------2---2---4------|--------4-------2-----------2--|
   E|0---0---2-/-4------------------|------------------------4------|



                (.
   G|------- ------- ------- -------|------- ------- ------- -------|
   D|------------2------------------|-------------------------------|
   A|--------2----------------------|-------------------------------|
   E|0---4--------------------------|-------------------------------|








        B  Bend
        R  Release
        /  slide up
        \  slide down
        H  hammer-on
        P  pull-off
        ~  vibrato
        +  harmonic
        x  Mute note
        . - play note like a dot in standard notation
        ^ - ties two notes together
        (.  Pause



Suggest correction
Creating personal tab
Creating personal tab
You can edit any tab online and save it as your Personal.

You can edit, replace or remove any tab part or add personal notes – all changes will be seen only by you.

Personal tabs can be accessed anytime from any device, even offline.
Learn more »
Give kudos to tab author, rate the tab!
1 2 3 4 5
comments
print report bad tab
guest
You may want to rate the tab now too:
select rating
Wanna post a correction for this tab? Suggest correction