Oops, an error
Loading. Please wait.

Sally G bass

64 views 1 this week
no commentswrite comment
1 2 3 4 5
3 more votes to show rating
add to favorites
×
Save as Personal and add changes to this tab that will be seen only by you. Learn more ›
×
You can save this tab as Personal to edit and correct it or add notes. All changes will be seen only by you. Learn more »
launch autoscroll
font size
0
reset
guitar tuner
edit
Autoscroll
slow
fast
+/-
esc
set tempo
stop
Intro :
G|---------------------------------|---------------------------------|
D|---------------------------------|---------------------------------|
A|---------------------------------|---------------------------------|
E|---------------------------------|---------------------------------|

Bass starts after guitar strumming
G|---------------------------------|---------------------------------|
D|5---------------5----------------|5---------------5----------------|
A|--------3---------------3--------|--------3---------------3--------|
E|---------------------------------|---------------------------------|

Verse 1 :
G|---------------------------------|---------------------------------|
D|5---------------5----------------|7---------------7----------------|
A|--------5---------------5--------|--------7---------------7--------|
E|---------------------------------|---------------------------------|

G|---------------------------------|---------------------------------|
D|7---------------7----------------|5---------------5----------------|
A|--------7---------------7--------|--------5---------------5--------|
E|---------------------------------|---------------------------------|

G|---------------------------------|---------------------------------|
D|5---------------5----------------|7---------------7----------------|
A|--------5---------------5--------|--------7---------------7--------|
E|---------------------------------|---------------------------------|

G|---------------------------------|---------------------------------|
D|7--------------------------------|5---------------5----------------|
A|--------0---2---3-------2---0----|--------7---5-----------5--------|
E|---------------------------------|---------------------------------|

Chorus :
G|---------------------------------|---------------------------------|
D|--------5-------5----------------|--------5-------5---\-------5----|
A|3-----------------------5--------|3-----------------------5--------|
E|---------------------------------|---------------------------------|

G|---------------------------------|---------------------------------|
D|7--------------------------------|----------------5----------------|
A|--------7-------7-------7--------|5-------5---------------5--------|
E|---------------------------------|---------------------------------|

G|---------------------------------|---------------------------------|
D|--------5-------5----------------|--------5-------5-----------5----|
A|3-----------------------5--------|3-----------------------5--------|
E|---------------------------------|---------------------------------|

G|---------------------------------|---------------------------------|
D|7---------------7----------------|7--------------------------------|
A|--------7---------------7--------|--------0---2---3-------2---0----|
E|---------------------------------|---------------------------------|

Interlude :
G|---------------------------------|---------------------------------|
D|5---------------5----------------|5---------------5----------------|
A|--------3---------------3--------|--------3---------------3--------|
E|---------------------------------|---------------------------------|

Verse 2 :
G|---------------------------------|---------------------------------|
D|5---------------5----------------|7---------------7----------------|
A|--------5---------------5--------|--------7---------------7--------|
E|---------------------------------|---------------------------------|

G|---------------------------------|---------------------------------|
D|7---------------7----------------|5---------------5----------------|
A|--------7---------------7--------|--------5---------------5--------|
E|---------------------------------|---------------------------------|

G|---------------------------------|---------------------------------|
D|5---------------5----------------|7---------------7----------------|
A|--------5---------------5--------|--------7---------------7--------|
E|---------------------------------|---------------------------------|

G|---------------------------------|---------------------------------|
D|7--------------------------------|5---------------5-----------5----|
A|--------0---2---3-------2---0----|--------5---------------5--------|
E|---------------------------------|---------------------------------|

Chorus :
G|---------------------------------|---------------------------------|
D|--------5-------5----------------|--------5-------5-----------5----|
A|3-----------------------5--------|3-----------------------5--------|
E|---------------------------------|---------------------------------|

G|---------------------------------|---------------------------------|
D|7---------------7----------------|--------2---4---5----------------|
A|--------7---------------7--------|5-----------------------5--------|
E|---------------------------------|---------------------------------|

G|---------------------------------|---------------------------------|
D|--------5-------5----------------|--------5-------5-----------5----|
A|3-----------------------5--------|3-----------------------5--------|
E|---------------------------------|---------------------------------|

G|---------------------------------|---------------------------------|
D|7---------------7----------------|7--------------------------------|
A|--------7---------------7--------|--------0---2---3-------2---0----|
E|---------------------------------|---------------------------------|

Interlude :
G|---------------------------------|---------------------------------|
D|5---------------5----------------|5---------------5----------------|
A|--------3---------------3--------|--------3---------------3--------|
E|---------------------------------|---------------------------------|

Bridge :
G|---------------------------------|---------------------------------|
D|7--------------------------------|---------------------------------|
A|---------------------------------|---------------------------------|
E|--------5-------5-------5---3----|0-------0-------0-------0---1----|

G|---------------------------------|---------------------------------|
D|---------------------------------|---------------------------------|
A|---------------------------------|5-------5-------5-------5--------|
E|3-------3-------3-------3---0----|----------------------------4----|

G|---------------------------------|---------------------------------|
D|------------------------------/--|5-------5-------5-------5---/----|
A|---------------------------------|---------------------------------|
E|5-------5-------5-------5--------|---------------------------------|

G|---------------------------------|---------------------------------|
D|7-------7-------7-------7--------|---------------------------------|
A|----------------------------/----|7-------7-------7-------5---7----|
E|---------------------------------|---------------------------------|

G|---------------------------------|
D|------------------------2---4----|
A|3---------------3----------------|
E|--------3------------------------|

Interlude :
G|---------------------------------|---------------------------------|
D|5---------------5----------------|5---------------5----------------|
A|--------3---------------3--------|--------3---------------3--------|
E|---------------------------------|---------------------------------|

Verse 3 :
G|---------------------------------|---------------------------------|
D|5---------------5----------------|7---------------7----------------|
A|--------5---------------5--------|--------7---------------7--------|
E|---------------------------------|---------------------------------|

G|---------------------------------|---------------------------------|
D|7---------------7----------------|5---------------5----------------|
A|--------7---------------7--------|--------5---------------5--------|
E|---------------------------------|---------------------------------|

G|---------------------------------|---------------------------------|
D|5---------------5----------------|7---------------7----------------|
A|--------5---------------5--------|--------7---------------7--------|
E|---------------------------------|---------------------------------|

G|---------------------------------|---------------------------------|
D|7--------------------------------|5---------------5----------------|
A|--------0---2---3-------2---0----|--------5---------------5--------|
E|---------------------------------|---------------------------------|

Chorus :
G|---------------------------------|---------------------------------|
D|--------5-------5----------------|--------5-------5-----------5----|
A|3-----------------------5--------|3-----------------------5--------|
E|---------------------------------|---------------------------------|

G|---------------------------------|---------------------------------|
D|7---------------7----------------|--------2---4---5-----------5----|
A|--------7---------------7--------|5-----------------------5--------|
E|---------------------------------|---------------------------------|

G|---------------------------------|---------------------------------|
D|--------5-------5-----------5----|--------5-------5-----------5----|
A|3-----------------------5--------|3-----------------------5--------|
E|---------------------------------|---------------------------------|

G|---------------------------------|---------------------------------|
D|7---------------7----------------|7--------------------------------|
A|--------7---------------7--------|--------0---2---3-------2---0----|
E|---------------------------------|---------------------------------|

Interlude :
G|---------------------------------|---------------------------------|
D|5---------------5----------------|5---------------5----------------|
A|--------3---------------3--------|--------3---------------3--------|
E|---------------------------------|---------------------------------|

Outro :
G|---------------------------------|---------------------------------|
D|---------------------------------|---------------------------------|
A|---------------------------------|--------0---2---3-------2---0----|
E|5--------------------------------|---------------------------------|

G|---------------------------------|---------------------------------|
D|5---------------5----------------|5-----------------------5--------|
A|--------3---------------3--------|--------3-------0---3------------|
E|---------------------------------|---------------------------------|


            
            
Suggest correction
Creating personal tab
Creating personal tab
You can edit any tab online and save it as your Personal.

You can edit, replace or remove any tab part or add personal notes – all changes will be seen only by you.

Personal tabs can be accessed anytime from any device, even offline.
Learn more »
Give kudos to tab author, rate the tab!
1 2 3 4 5
comments
print report bad tab
guest
You may want to rate the tab now too:
select rating
Wanna post a correction for this tab? Suggest correction