Oops, an error
Loading. Please wait.

Save Us Bass Tab

version 2
version 2

Whole song

19 views 3 this week
no commentswrite comment
1 2 3 4 5
3 more votes to show rating
add to favorites
launch autoscroll
font size
0
reset
guitar tuner
Autoscroll
slow
fast
+/-
esc
set tempo
stop
Help us to improve Ultimate-Guitar.com Take our survey!
×
Author
Difficulty
Intro :
G|---------------------------------|---------------------------------|
D|---------------------------------|---------------------------------|
A|0---0---0---0---0---0---0---0----|0---0---0---0---0---0---3---4----|
E|---------------------------------|---------------------------------|

G|---------------------------------|---------------------------------|
D|---------------------------------|---------------------------------|
A|5---5---5---5---5---5---5---5----|5---5---5---5---5---5---5---5----|
E|---------------------------------|---------------------------------|

Verse 1 :
G|---------------------------------|---------------------------------|
D|---------------------------------|---------------------------------|
A|0---0---0---0---0---0---0---0----|0---0---0---0---0---0---3---4----|
E|---------------------------------|---------------------------------|

G|---------------------------------|---------------------------------|
D|---------------------------------|---------------------------------|
A|5---5---5---5---5---5---5---5----|5---5---5---5---5---5---5---5----|
E|---------------------------------|---------------------------------|

G|---------------------------------|---------------------------------|
D|---------------------------------|---------------------------------|
A|0---0---0---0---0---0---0---0----|0---0---0---0---0---0---3---4----|
E|---------------------------------|---------------------------------|

G|---------------------------------|---------------------------------|
D|---------------------------------|---------------------------------|
A|5---5---5---5---5---5---5---5----|5---5---5---5---5---5---5---5----|
E|---------------------------------|---------------------------------|

Chorus :
G|---------------------------------|---------------------------------|
D|---------------------------------|---------------------------------|
A|3---3---3---3---3---3---3---3----|3---3---3---3---3---3---3---3----|
E|---------------------------------|---------------------------------|

G|---------------------------------|---------------------------------|
D|---------------------------------|2-------0------------------------|
A|2---2---2---2---2---2---2---2----|----------------3-------2--------|
E|---------------------------------|---------------------------------|

G|---------------------------------|---------------------------------|
D|---------------------------------|---------------------------------|
A|---------------------------------|---------------------------------|
E|5---5---5---5---5---5---5---5----|5---5---5---5---3---3---3---2----|

G|---------------------------------|---------------------------------|
D|---------------------------------|---------------------------------|
A|---------------------------------|---------------------------------|
E|1---1---1---1---1---1---1---1----|1---1---1---1---0---0---0---0----|

G|---------------------------------|---------------------------------|
D|---------------------------------|---------------------------------|
A|5---5---5---5---5---5---5---5----|5---5---5---5---5---5---5---5----|
E|---------------------------------|---------------------------------|

G|---------------------------------|---------------------------------|
D|---------------------------------|---------------------------------|
A|5---5---5---5---5---5---5---5----|5---5---5---5---5---5---5---5----|
E|---------------------------------|---------------------------------|

Interlude :
G|---------------------------------|---------------------------------|
D|---------------------------------|---------------------------------|
A|0---0---0---0---0---0---0---0----|0---0---0---0---0---0---3---4----|
E|---------------------------------|---------------------------------|

G|---------------------------------|---------------------------------|
D|---------------------------------|---------------------------------|
A|5---5---5---5---5---5---5---5----|5---5---5---5---5---5---5---5----|
E|---------------------------------|---------------------------------|

G|---------------------------------|---------------------------------|
D|---------------------------------|---------------------------------|
A|0---0---0---0---0---0---0---0----|0---0---0---0---0---0---3---4----|
E|---------------------------------|---------------------------------|

G|---------------------------------|---------------------------------|
D|---------------------------------|---------------------------------|
A|5---5---5---5---5---5---5---5----|5---5---5---5---5---5---5---5----|
E|---------------------------------|---------------------------------|

Verse 2 :
G|---------------------------------|---------------------------------|
D|---------------------------------|---------------------------------|
A|0---0---0---0---0---0---0---0----|0---0---0---0---0---0---3---4----|
E|---------------------------------|---------------------------------|

G|---------------------------------|---------------------------------|
D|---------------------------------|---------------------------------|
A|5---5---5---5---5---5---5---5----|5---5---5---5---5---5---5---3----|
E|---------------------------------|---------------------------------|

G|---------------------------------|---------------------------------|
D|---------------------------------|---------------------------------|
A|0---0---0---0---0---0---0---0----|0---0---0---0---0---0---3---4----|
E|---------------------------------|---------------------------------|

G|---------------------------------|---------------------------------|
D|---------------------------------|---------------------------------|
A|5---5---5---5---5---5---5---5----|5---5---5---5---5---5---5---5----|
E|---------------------------------|---------------------------------|

Chorus :
G|---------------------------------|---------------------------------|
D|---------------------------------|---------------------------------|
A|3---3---3---3---3---3---3---3----|3---3---3---3---3---3---3---3----|
E|---------------------------------|---------------------------------|

G|---------------------------------|---------------------------------|
D|---------------------------------|2-------0------------------------|
A|2---2---2---2---2---2---2---2----|----------------3-------2--------|
E|---------------------------------|---------------------------------|

G|---------------------------------|---------------------------------|
D|---------------------------------|---------------------------------|
A|---------------------------------|---------------------------------|
E|5---5---5---5---5---5---5---5----|5---5---5---5---3---3---3---2----|

G|---------------------------------|---------------------------------|
D|---------------------------------|---------------------------------|
A|---------------------------------|---------------------------------|
E|1---1---1---1---1---1---1---1----|1---1---1---1---0---0---0---0----|

G|---------------------------------|---------------------------------|
D|---------------------------------|---------------------------------|
A|5---5---5---5---5---5---5---5----|5---5---5---5---5---5---5---5----|
E|---------------------------------|---------------------------------|

G|---------------------------------|---------------------------------|
D|---------------------------------|---------------------------------|
A|5---5---5---5---5---5---5---5----|5---5---5---5---5---5---5---5----|
E|---------------------------------|---------------------------------|

Bridge :
G|---------------------------------|---------------------------------|
D|---------------------------------|---------------------------------|
A|---------------------------------|---------------------------------|
E|1---1---1---1---1---1---1---1----|3---3---3---3---3---3---3---3----|

G|---------------------------------|---------------------------------|
D|---------------------------------|---------------------------------|
A|---------------------------------|---------------------------------|
E|4---4---4---4---4---4---4---4----|5---5---5---5---5---5---5---5----|

G|---------------------------------|---------------------------------|
D|---------------------------------|---------------------------------|
A|---------------------------------|---------------------------------|
E|1---1---1---1---1---1---1---1----|3---3---3---3---3---3---3---3----|

G|---------------------------------|---------------------------------|
D|---------------------------------|---------------------------------|
A|---------------------------------|--------3---3---3---5---4---3----|
E|4---4---4---4---4---4---4---4----|5---5----------------------------|

G|---------------------------------|---------------------------------|
D|---------------------------------|---------------------------------|
A|---------------------------------|---------------------------------|
E|1---1---1---1---1---1---1---1----|3---3---3---3---3---3---3---3----|

G|---------------------------------|---------------------------------|
D|---------------------------------|---------------------------------|
A|---------------------------------|---------------------------------|
E|4---4---4---4---4---4---4---4----|5---5---5---5---5---5---5---5----|

G|---------------------------------|---------------------------------|
D|--------------------7------------|---------------------------------|
A|------------7--------------------|5--------------------------------|
E|7--------------------------------|--------3-------3----------------|

G|---------------------------------|-----------------|
D|---------------------------------|-----------------| *4 bar instead of 8
A|---------------------------------|4---3---0--------|
E|---------------------------------|------------3----|

Interlude :
G|---------------------------------|---------------------------------|
D|---------------------------------|---------------------------------|
A|0---0---0---0---0---0---0---0----|0---0---0---0---0---0---3---4----|
E|---------------------------------|---------------------------------|

G|---------------------------------|---------------------------------|
D|---------------------------------|---------------------------------|
A|5---5---5---5---5---5---5---5----|5---5---5---5---5---5---5---3----|
E|---------------------------------|---------------------------------|

G|---------------------------------|---------------------------------|
D|---------------------------------|---------------------------------|
A|0---0---0---0---0---0---0---0----|0---0---0---0---0---0---3---4----|
E|---------------------------------|---------------------------------|

G|---------------------------------|---------------------------------|
D|---------------------------------|---------------------------------|
A|5---5---5---5---5---5---5---5----|5---5---5---5---5---5---5---0----|
E|---------------------------------|---------------------------------|

Chorus :
G|---------------------------------|---------------------------------|
D|---------------------------------|---------------------------------|
A|3---3---3---3---3---3---3---3----|3---3---3---3---3---3---3---3----|
E|---------------------------------|---------------------------------|

G|---------------------------------|---------------------------------|
D|---------------------------------|2-------0------------------------|
A|2---2---2---2---2---2---2---2----|----------------3-------2--------|
E|---------------------------------|---------------------------------|

G|---------------------------------|---------------------------------|
D|---------------------------------|---------------------------------|
A|---------------------------------|---------------------------------|
E|5---5---5---5---5---5---5---5----|5---5---5---5---3---3---3---2----|

G|---------------------------------|---------------------------------|
D|---------------------------------|---------------------------------|
A|---------------------------------|---------------------------------|
E|1---1---1---1---1---1---1---1----|1---1---1---1---0---0---0---0----|

G|---------------------------------|---------------------------------|
D|---------------------------------|---------------------------------|
A|5---5---5---5---5---5---5---5----|5---5---5---5---5---5---5---5----|
E|---------------------------------|---------------------------------|

G|---------------------------------|---------------------------------|
D|---------------------------------|7---6---5---4---3----------------|
A|5---5---5---5---5---5---5---5----|--------------------5---3---3----|
E|---------------------------------|---------------------------------|

Outro :
G|---------------------------------|---------------------------------|
D|---------------------------------|---------------------------------|
A|0---0---0---0---0---0---0---0----|0---0---0---0---0---0---3---4----|
E|---------------------------------|---------------------------------|

G|---------------------------------|---------------------------------|
D|---------------------------------|---------------------------------|
A|5---5---5---5---5---5---5---5----|5---5---5---5---7---5---5---3----|
E|---------------------------------|---------------------------------|

G|---------------------------------|---------------------------------|
D|---------------------------------|---------------------------------|
A|0---0---0---0---0---0---0---0----|0---0---0---0---0---0---3---4----|
E|---------------------------------|---------------------------------|

G|---------------------------------|---------------------------------|
D|---------------------------------|---------------------------------|
A|5---5---5---5---5---5---5---5----|3---5---3---5---3---5---3---5----|
E|---------------------------------|---------------------------------|

G|---------------------------------|---------------------------------|
D|---------------------------------|---------------------------------|
A|---------------------------------|---------------------------------|
E|5--------------------------------|---------------------------------|
Suggest correction
Give kudos to tab author, rate the tab!
1 2 3 4 5
comments
print report bad tab
guest
You may want to rate the tab now too:
select rating
Wanna post a correction for this tab? Suggest correction