Oops, an error
Loading. Please wait.

Say Say Say bass

version 1
version 1

Whole song

Interactive

247 views 6 this week
no commentswrite comment
1 2 3 4 5
3 more votes to show rating
add to favorites
×
Save as Personal and add changes to this tab that will be seen only by you. Learn more ›
×
You can save this tab as Personal to edit and correct it or add notes. All changes will be seen only by you. Learn more »
launch autoscroll
font size
0
reset
guitar tuner
edit
Autoscroll
slow
fast
+/-
esc
set tempo
stop
Author
Difficulty
Intro :
G|---------------------------------|---------------------------------|
D|---------------------------------|---------------------------------|
A|---------------------------------|---------------------------------|
E|---------------------------------|---------------------------------|

G|---------------------------------|---------------------------------|
D|---------------------------------|---------------------------------|
A|---------------------------------|---------------------------------|
E|---------------------------------|---------------------------------|

G|---------------------------------|---------------------------------|
D|---------------------------------|---------------------------------|
A|---------------------------------|---------------------------------|
E|---------------------------------|---------------------------------|

G|---------------------------------|---------------------------------|
D|---------------------------------|---------------------------------|
A|---------------------------------|---------------------------------|
E|---------------------------------|---------------------------------|

Paul’s Chorus :
G|---------------------------------|---------------------------------|
D|---------------------------------|---------------------------------|
A|---------------------------------|------------4---6---6---6---6----|
E|6---6---6---6---6---6---6---6----|6---6---6------------------------|

G|---------------------------------|---------------------------------|
D|---------------------------------|---------------------------------|
A|6---6---6---6---6---6---6---6----|6---6---6---4--------------------|
E|---------------------------------|----------------6---6---6---6----|

G|---------------------------------|---------------------------------|
D|---------------------------------|---------------------------------|
A|---------------------------------|------------4---6---6---6---6----|
E|6---6---6---6---6---6---6---6----|6---6---6------------------------|

G|---------------------------------|---------------------------------|
D|---------------------------------|---------------------------------|
A|6---6---6---6---6---6---6---6----|6---6---6---4--------------------|
E|---------------------------------|----------------6---6---6---6----|

Michael’s Chorus :
G|---------------------------------|---------------------------------|
D|---------------------------------|----------------4----------------|
A|6-------6-------6-------6--------|------------4--------------------|
E|----------------------------4----|2-------2---------------4---5----|

G|---------------------------------|---------------------------------|
D|---------------------------------|---------------------------------|
A|---------------------------------|------------------------4---5----|
E|6-----------6---6----------------|6-----------6---6----------------|

G|---------------------------------|---------------------------------|
D|---------------------------------|--------------/-6-------4---\----|
A|6-------6-------6-------6--------|------------4--------------------|
E|---------------------------------|2-------2------------------------|

G|---------------------------------|---------------------------------|
D|3---3---3---3---3---3---3---3----|3--------------------------------|
A|---------------------------------|---------------------------------|
E|---------------------------------|---------------------------------|

Interlude :
G|---------------------------------|---------------------------------|
D|---------------------------------|---------------------------------|
A|---------------------------------|------------4---6----------------|
E|6-----------6---6----------------|6-------6------------------------|

G|---------------------------------|---------------------------------|
D|---------------------------------|---------------------------------|
A|6-----------6-----------6--------|--------6---4--------------------|
E|---------------------------------|----------------6----------------|

Paul’s Chorus :
G|---------------------------------|---------------------------------|
D|---------------------------------|---------------------------------|
A|---------------------------------|------------4---6---6---6---6----|
E|6---6---6---6---6---6---6---6----|6---6---6------------------------|

G|---------------------------------|---------------------------------|
D|---------------------------------|---------------------------------|
A|6---6---6---6---6---6---6---6----|6---6---6---4--------------------|
E|---------------------------------|----------------6---6---6---6----|

G|---------------------------------|---------------------------------|
D|---------------------------------|---------------------------------|
A|---------------------------------|------------4---6---6---6---6----|
E|6---6---6---6---6---6---6---6----|6---6---6------------------------|

G|---------------------------------|---------------------------------|
D|---------------------------------|---------------------------------|
A|6---6---6---6---6---6---6---6----|6---6---6---4--------------------|
E|---------------------------------|----------------6---6---6---6----|

Michael’s Chorus :
G|---------------------------------|---------------------------------|
D|---------------------------------|----------------4----------------|
A|6-------6---6---6-------6--------|------------4--------------------|
E|----------------------------4----|2-----------------------4---5----|

G|---------------------------------|---------------------------------|
D|----------------------------6-7--|8-------------6/8----------------|
A|---------------------------------|------------------------4---5----|
E|6-----------6---6----------------|---------------------------------|

G|---------------------------------|---------------------------------|
D|---------------------------------|--------------/-6-------4---\----|
A|6-------6---6---6-------6--------|------------4--------------------|
E|---------------------------------|2-------2------------------------|

G|---------------------------------|---------------------------------|
D|3---3---3---3---3---3---3---3--0/|3--------------------------------|
A|---------------------------------|---------------------------------|
E|---------------------------------|---------------------------------|

Solo : 
G|---------------------------------|---------------------------------|
D|---------------------------------|---------------------------------|
A|---------------------------------|------------4---6---6---6--------|
E|6---6---6---6---6---6---6---6----|6---6---6------------------------|

G|---------------------------------|---------------------------------|
D|---------------------------------|---------------------------------|
A|6-----------6-----------6--------|6---6---6---4--------------------|
E|---------------------------------|----------------6---6---6---6----|

G|---------------------------------|---------------------------------|
D|---------------------------------|---------------------------------|
A|---------------------------------|------------4---6---6---6---6----|
E|6---6---6---6---6---6---6---6----|6---6---6------------------------|

G|---------------------------------|---------------------------------|
D|---------------------------------|---------------------------------|
A|6-----------6-----------6--------|6---6---6---4--------------------|
E|---------------------------------|----------------6---6---6---2-/--|

Bridge :
G|---------------------------------|---------------------------------|
D|--------------6h8-------6--------|8-----------8---8----------------|
A|------------6--------------------|--------------------8------------|
E|4-------6------------------------|------------------------6---\----|

G|---------------------------------|------------6---5----------------|
D|----------------8-------6--------|8-------------------8------------|
A|------------6--------------------|------------------------8--------|
E|4--------------------------------|----------------------------6----|

G|---------------------------------|---------------------------------|
D|--------------6h8-------6--------|8---------------8----------------|
A|------------6--------------------|------------8-----------8---\----|
E|4--------------------------------|---------------------------------|

G|---------------------------------|---------------------------------|
D|---------------------------------|---------------------------------|
A|---------------------------------|---------------------------------|
E|1--------------------------------|1--------------------------------|

Paul’s Chorus :
G|---------------------------------|---------------------------------|
D|---------------------------------|---------------------------------|
A|---------------------------------|------------4---6---6---6---6----|
E|6---6---6-------6---6---6---6----|6---6---6------------------------|

G|---------------------------------|---------------------------------|
D|---------------------------------|---------------------------------|
A|6---6---6---6---6---6---6---6----|6---6---6---4--------------------|
E|---------------------------------|----------------6---6---6---6----|

G|---------------------------------|---------------------------------|
D|---------------------------------|---------------------------------|
A|---------------------------------|------------4---6---6---6--------|
E|6---6---6---6---6---6---6---6----|6---6---6------------------------|

G|---------------------------------|---------------------------------|
D|---------------------------------|---------------------------------|
A|6---6---6---6---6---6---6---6----|6---6---6---4--------------------|
E|---------------------------------|----------------6---6---6---6----|

Michael’s Chorus :
G|---------------------------------|---------------------------------|
D|---------------------------------|---------------------------------|
A|6-------6---6---6-------6--------|---------------------------------|
E|---------------------------------|2-----------2---2-------4---5----|

G|---------------------------------|---------------------------------|
D|---------------------------------|--------6---7---8----------------|
A|---------------------------------|--------------------8------------|
E|6-----------4---6-----------4----|6-----------------------6---\----|

G|---------------------------------|---------------------------------|
D|---------------------------------|--------------/-6-------4---\----|
A|6-----------6---6-----------6----|------------4--------------------|
E|---------------------------------|2--------------------------------|

G|---------------------------------|---------------------------------|
D|3---3---3---3---3---3---3---3--0/|3--------------------------------|
A|---------------------------------|---------------------------------|
E|---------------------------------|---------------------------------|

Interlude :
G|---------------------------------|---------------------------------|
D|---------------------------------|---------------------------------|
A|---------------------------------|------------4---6---6---6--------|
E|6---6---6-------6---6---6---6----|6---6---6------------------------|

G|---------------------------------|---------------------------------|
D|---------------------------------|---------------------------------|
A|6-------6---6-----------6--------|6---6---6---4--------------------|
E|---------------------------------|----------------6---6---6---6----|

G|---------------------------------|---------------------------------|
D|---------------------------------|---------------------------------|
A|---------------------------------|------------4---6---6---6--------|
E|6---6---6-------6---6---6---6----|6---6---6------------------------|

G|---------------------------------|---------------------------------|
D|---------------------------------|---------------------------------|
A|6---6---6---6---6---6---6---6----|6---6-------4--------------------|
E|---------------------------------|----------------6---6---6---6----|

G|---------------------------------|---------------------------------|
D|---------------------------------|---------------------------------|
A|---------------------------------|------------4---6---6---6--------|
E|6---6---6-------6---6---6---6----|6---6---6------------------------|

G|---------------------------------|---------------------------------|
D|---------------------------------|---------------------------------|
A|6---6---6-------6---6---6--------|6---6-------4--------------------|
E|---------------------------------|----------------6---6---6--------|

G|---------------------------------|---------------------------------|
D|---------------------------------|---------------------------------|
A|---------------------------------|------------4---6---6---6---6----|
E|6---6---6-------6---6---6---6----|6---6---6------------------------|

G|---------------------------------|---------------------------------|
D|---------------------------------|--------------------7-7-6--------|
A|6---6---6---6---6---6---6---6----|6---6-------4--------------------|
E|---------------------------------|----------------6----------------|

Outro :
G|---------------------------------|---------------------------------|
D|---------------------------------|---------------------------------|
A|---------------------------------|------------4---6---6---6--------|
E|6---6---6-------6---6---6---6----|6---6---6------------------------|

G|---------------------------------|---------------------------------|
D|---------------------------------|---------------------------------|
A|6---6---6-------6---6---6--------|6---6-------4--------------------|
E|---------------------------------|----------------6---6---6--------|

            
            
Suggest correction
Creating personal tab
Creating personal tab
You can edit any tab online and save it as your Personal.

You can edit, replace or remove any tab part or add personal notes – all changes will be seen only by you.

Personal tabs can be accessed anytime from any device, even offline.
Learn more »
Give kudos to tab author, rate the tab!
1 2 3 4 5
comments
print report bad tab
guest
You may want to rate the tab now too:
select rating
Wanna post a correction for this tab? Suggest correction