Oops, an error
Loading. Please wait.

She Said Yeah bass

657 views 3 this week
no commentswrite comment
1 2 3 4 5
3 more votes to show rating
add to favorites
×
Save as Personal and add changes to this tab that will be seen only by you. Learn more ›
×
You can save this tab as Personal to edit and correct it or add notes. All changes will be seen only by you. Learn more »
launch autoscroll
font size
0
reset
guitar tuner
edit
Autoscroll
slow
fast
+/-
esc
set tempo
stop
Author
     -----------------------------------------------------------

     PAUL McCARTNEY - SHE SAID YEAH (Larry  Williams) From RUN 
                      DEVIL RUN album. Released on October 5th, 
                      1999.

     -----------------------------------------------------------

     Bass tab by:PJVillanueva





     Dum diddle dee dum dum
     Little girl where did you come from
     You fine little thing, you make my heart sing
     Come on, baby, let me buy the wedding ring

     Baby, you drive me crazy
     Got my poor heart hazy
     You got my senses reeling, ooh baby what a feeling
     Come on, baby, let me make love to you

     She said yeah
     She said yeah
     She said yeah yeah yeah
     Come on baby, I wanna make love to you too

     Ooh I got the feeling in my soul
     You know I love no one above 
     Come on baby, just let me love you, yeah

     She said yeah
     She said yeah
     She said yeah yeah yeah
     Come on baby, I'm wanna make love to you too Ooooow!

                SOLO

     Well you got me crazy
     My love you've been saving
     You see what miss, I wanna kiss
     Come on baby, don't treat me like this

     She said yeah
     She said yeah
     She said yeah yeah yeah
     Come on baby, I wanna make love to you too, yeah

     She said yeah
     She said yeah yeah yeah 
     Come on baby, I wanna make love to you too yeah yeah
     Come on baby, I wanna make love to you too





   G|------- ------- ------- -------|------- ------- ------- -------|
   D|-------------------------------|-------------------------------|
   A|-------------------------------|----------------------------6--|
   E|-------------------------------|--------------------7---9------|



   G|------- ------- ------- -------|------- ------- ------- -------|
   D|-------------------------------|--------------------6---7---8--|
   A|7------------------------------|-------------------------------|
   E|--------0-----------0---0------|0-----------0------------------|
             Dum             deedle  dee dum     dum


   G|------- ------- ------- -------|------- ------- ------- -------|
   D|9-------9-----------9----------|9-----------9-------9---9------|
   A|-------------------------------|-------------------------------|
   E|-------------------------------|-------------------------------|
             Little  girl,   where   you come    from
                                 did

   G|------- ------- ------- -------|------- ------- ------- -------|
   D|----------------6--------------|7---------------7--------------|
   A|7------------------------------|-------------------------------|
   E|-------------------------------|-------------------------------|
         You fine    little  thing,      you make    my  heart 
                                                             sing

   G|------- ------- ------- -------|------- ------- ------- -------|
   D|-------------------------------|-------------------------------|
   A|7------------------------------|----------------------------6--|
   E|-------------------------------|--------------------7---9------|
     Come        baby,       let     buy the wedding ring
         on                      me    

     00:11

   G|------- ------- ------- -------|------- ------- ------- -------|
   D|-------------------------------|-------------------------------|
   A|7------------------------------|-------------------------------|
   E|--------0-----------0----------|0-----------0-------0----------|
             Baby                you drive   me  crazy


   G|------- ------- ------- -------|------- ------- ------- -------|
   D/9-------9-----------9-------9--|9---9-------9-------9----------|
   A|-------------------------------|-------------------------------|
   E|-------------------------------|-------------------------------|
             Got             my      poor        hazy
                                         heart

   G|------- ------- ------- -------|------- ------- ------- -------|
   D|----------------6--------------|7-----------7------------------|
   A|7------------------------------|-------------------------------|
   E|-------------------------------|-------------------------------|
         You got my  senses  reeling,    ooh baby    what a  feeling


   G|------- ------- ------- -------|------- ------- ------- -------|
   D|-------------------------------|-------------------------------|
   A|7------------------------------|-------------------------------|
   E|-------------------------------|-------------------------------|
     Come        baby,       let me  make    to  you.    She said
         on,                             love

     00:21

   G|------- ------- ------- -------|------- ------- ------- -------|
   D|--------2-----------2---4---2--|5---4-------2-----------2------|
   A|-------------------------------|-------------------------------|
   E|-------------------------------|-------------------------------|
     Yeah                                                She said


   G|------- ------- ------- -------|------- ------- ------- -------|
   D|-------------------------------|-------------------------------|
   A|2-------2-----------2---4---2--|5---4-------2-------2----------|
   E|-------------------------------|-------------------------------|
     Yeah                                                She said


   G|------- ------- ------- -------|------- ------- ------- -------|
   D|----------------6--------------|7-----------7-------7---7------|
   A|7------------------------------|-------------------------------|
   E|-------------------------------|-------------------------------|
     Yeah            yeah            yeah


   G|------- ------- ------- -------|------- ------- ------- -------|
   D|-------------------------------|9---9---9-----------9----------|
   A|9-----------9-------9----------|-------------------------------|
   E|-------------------------------|-------------------------------|
     Come        baby,           I   wanna   make    love    you 
         on,                                             to
                                 (.
   G|------- ------- ------- -------|------- ------- ------- -------|
   D|2-------2-------0--------------|-------------------------------|
   A|--------------------2-------2--|--------------------------/-14-|
   E|-------------------------------|-------------------------------|
     too                                     Ooh I   got     the feeling

     00:34

   G|------- ------- ------- -------|------- ------- ------- -------|
   D|-------------------------------|-------------------------------|
   A|-------------------------------|-------------------------------|
   E|0-------0-----------0----------|0-------0-----------0---0------|
                                                     in  my      soul


   G|------- ------- ------- -------|------- ------- ------- -------|
   D|-------------------------------|-------------------------------|
   A|2-------2-----------1---2---2--|1---2---2---2-------2-------2--|
   E|-------------------------------|-------------------------------|
                                                         you   I love
                                                             know 

   G|------- ------- ------- -------|------- ------- ------- -------|
   D|----------------6--------------|7-----------7-------7---7--\---|
   A|7-----------7------------------|-------------------------------|
   E|-------------------------------|-------------------------------|
                         no  one above


   G|------- ------- ------- -------|------- ------- ------- -------|
   D|-------------------------------|-------------------------------|
   A|7------------------------------|-------------------------------|
   E|-------------------------------|-------------------------------|
     Come        baby,       just    let     me      love    you, 
         on,                                                 

     00:45

   G|------- ------- ------- -------|------- ------- ------- -------|
   D|--------2-----------2---4---2--|5---4-------2-----------2------|
   A|-------------------------------|-------------------------------|
   E|-------------------------------|-------------------------------|
     Yeah                                                She said


   G|------- ------- ------- -------|------- ------- ------- -------|
   D|-------------------------------|-------------------------------|
   A|--------2-----------2---4---2--|5---4-------2-------2---2------|
   E|-------------------------------|-------------------------------|
     Yeah                                                She said


   G|------- ------- ------- -------|------- ------- ------- -------|
   D|----------------6--------------|7-----------7-------7---7------|
   A|7------------------------------|----------------------------7--|
   E|-------------------------------|-------------------------------|
     Yeah            yeah            yeah


   G|------- ------- ------- -------|------- ------- ------- -------|
   D|-------------------------------|9-------9-----------9----------|
   A|9-------9-----------9----------|-------------------------------|
   E|-------------------------------|-------------------------------|
     Come        baby,           I   wanna   make    love    you 
         on,                                             to
                                (.
   G|------- ------- ------- -------|------- ------- ------- -------|
   D|2-------2-------0--------------|-------------------------------|
   A|--------------------2-------2--|--------------------------/-16-|
   E|-------------------------------|-------------------------------|
     too

     SOLO
     00:58

   G|------- ------- ------- -------|------- ------- ------- -------|
   D|-------------------------------|-------------------------------|
   A|7-------7-----------7-------7--|7-----------7-------7---7------|
   E|-------------------------------|-------------------------------|



   G|------- ------- ------- -------|------- ------- ------- -------|
   D|9-------9---9---9---9-------9--|9-----------9-------9-------9--|
   A|-------------------------------|-------------------------------|
   E|-------------------------------|-------------------------------|



   G|------- ------- ------- -------|------- ------- ------- -------|
   D|----------------6-------6------|7-----------7-------7--\-------|
   A|7------------------------------|-------------------------------|
   E|-------------------------------|-------------------------------|



   G|------- ------- ------- -------|------- ------- ------- -------|
   D|4-------4-----------4--------/-|9---9---9---9-------9----------|
   A|-------------------------------|-------------------------------|
   E|-------------------------------|-------------------------------|


     01:08

   G|------- ------- ------- -------|------- ------- ------- -------|
   D|-------------------------------|--------------------6---7---8--|
   A|7-------7---7---7---7----------|7---7-------7------------------|
   E|-------------------------------|-------------------------------|



   G|------- ------- ------- -------|------- ------- ------- -------|
   D|9-------9---9---9---9----------|9---9-------9-------9----------|
   A|-------------------------------|-------------------------------|
   E|-------------------------------|-------------------------------|



   G|------- ------- ------- -------|------- ------- ------- -------|
   D|----------------6---6----------|7-----------7-------7---7------|
   A|7-----------7------------------|-------------------------------|
   E|-------------------------------|-------------------------------|



   G|------- ------- ------- -------|------- ------- ------- -------|
   D|-------------------------------|9-------9-----------9----------|
   A|9-------9-----------9---9------|-------------------------------|
   E|-------------------------------|-------------------------------|
                                         Well    you got     me  crazy

                                 (.
   G|------- ------- ------- -------|------- ------- ------- -------|
   D|2-------2-------0--------------|-------------------------------|
   A|--------------------2-------2--|----------------------------/--|
   E|-------------------------------|-------------------------------|


     01:22

   G|------- ------- ------- -------|------- ------- ------- -------|
   D|-------------------------------|-------------------------------|
   A|7-------------------7----------|7-----------7-------7----------|
   E|-------------------------------|-------------------------------|
                                                         My   love been
                                                                you've

   G|------- ------- ------- -------|------- ------- ------- -------|
   D|-------------------------------|-------------------------------|
   A|-------------------------------|-------------------------------|
   E|7-----------7-------7---7------|7-----------7-------7---7------|
       saving                                            You see   I
                                                               what

   G|------- ------- ------- -------|------- ------- ------- -------|
   D|----------------6--------------|7-------------------7---7------|
   A|7-----------7------------------|-------------------------------|
   E|-------------------------------|-------------------------------|
     miss,               I   wanna   kiss


   G|------- ------- ------- -------|------- ------- ------- -------|
   D|-------------------------------|-------------------------------|
   A|7------------------------------|-------------------------------|
   E|-------------------------------|-------------------------------|
     Come        baby,       don't   treat   like    this    said
         on,                             me              She

     01:32

   G|------- ------- ------- -------|------- ------- ------- -------|
   D|--------2-----------2---4---2--|5---4-------2-------2----------|
   A|-------------------------------|-------------------------------|
   E|-------------------------------|-------------------------------|
     Yeah                                                She said


   G|------- ------- ------- -------|------- ------- ------- -------|
   D|-------------------------------|-------------------------------|
   A|--------2-----------2---4------|5---4-------2-------2---2------|
   E|-------------------------------|-------------------------------|
     Yeah                                                     She said 


   G|------- ------- ------- -------|------- ------- ------- -------|
   D|----------------6--------------|7-----------7-------7---7-\----|
   A|7-----------7------------------|-------------------------------|
   E|-------------------------------|-------------------------------|
     Yeah            yeah            yeah


   G|------- ------- ------- -------|4------ 4------ ----4-- 4------|
   D|4-----------4-------4---4------|-------------------------------|
   A|-------------------------------|-------------------------------|
   E|-------------------------------|-------------------------------|
     Come        baby,           I   wanna   make    love    you
         on,                                             to

     01:43

   G|------- ------- ------- -------|------- ------- ------- -------|
   D|2-------------------2---4---2--|5---4-------2-------2-------2--|
   A|-------------------------------|-------------------------------|
   E|-------------------------------|-------------------------------|
     too,    yeah                                        She said


   G|------- ------- ------- -------|------- ------- ------- -------|
   D|-------------------------------|-------------------------------|
   A|2-------2-----------2---4---2--|5---4-------2-------2---2------|
   E|-------------------------------|-------------------------------|
     Yeah                                                She said


   G|------- ------- ------- -------|------- ------- ------- -------|
   D|----------------6-------6------|7-----------7-------7---7------|
   A|7------------------------------|-------------------------------|
   E|-------------------------------|-------------------------------|
     Yeah            yeah            yeah


   G|------- ------- ------- -------|------- ------- ------- -------|
   D|-------------------------------|9-----------9-------9---9------|
   A|9-----------9-------9----------|-------------------------------|
   E|-------------------------------|-------------------------------|
     Come        baby,           I   wanna   make    love    you
         on,                                             to

   G|------- ------- ------- -------|------- ------- ------- -------|
   D|----------------6--------------|7-----------7-------7---7------|
   A|7------------------------------|-------------------------------|
   E|-------------------------------|-------------------------------|
     too,            yeah            yeah


   G|------- ------- ------- -------|------- ------- ------- -------|
   D|-------------------------------|9-----------9-------9----------|
   A|9-------9---9-------9----------|-------------------------------|
   E|-------------------------------|-------------------------------|
     Come        baby,           I   wanna   make    love    you
         on,                                             to
                                 (.
   G|------- ------- ------- -------|------- ------- ------- -------|
   D|-------------------------------|-------------------------------|
   A|7-------7-------5--------------|-------------------------------|
   E|--------------------7-------7--|-------------------------------|
     too.








        B  Bend
        R  Release
        /  slide up
        \  slide down
        H  hammer-on
        P  pull-off
        ~  vibrato
        +  harmonic
        x  Mute note
        . - play note like a dot in standard notation
        ^ - ties two notes together
        (.  Pause



                         

            
            
Suggest correction
Creating personal tab
Creating personal tab
You can edit any tab online and save it as your Personal.

You can edit, replace or remove any tab part or add personal notes – all changes will be seen only by you.

Personal tabs can be accessed anytime from any device, even offline.
Learn more »
Give kudos to tab author, rate the tab!
1 2 3 4 5
comments
print report bad tab
guest
You may want to rate the tab now too:
select rating
Wanna post a correction for this tab? Suggest correction