Oops, an error
Loading. Please wait.

Shes My Baby Bass Tab

40 views 3 this week
no commentswrite comment
1 2 3 4 5
3 more votes to show rating
add to favorites
launch autoscroll
font size
0
reset
guitar tuner
Autoscroll
slow
fast
+/-
esc
set tempo
stop
Help us to improve Ultimate-Guitar.com Take our survey!
×
[Verse 1]
My baby, she comes out at night
She's taking me by surprise
She's my baby
Like gravy, down to the last drop
I keep mopping her up
Oh yeah, she's my baby

[Chorus]
She's my baby in the morning time
When the sleep is in her eyes
And the world is waking up
She has a rhythm
Oh believe me, I ain't lying
She's a woman
She's a lady in the evening time
When the stars are in the sky
That's the time she changes back into a kitten
Oh believe me, I ain't lying

[Verse 2]
She's my baby
And she comes out at night
She's takin' me by surprise, she's my baby
Like gravy, down to the last drop
I keep mopping her up, yeah yeah yeah, she's my baby

[Chorus]
Well she's a baby in the morning time
When the sleep is in her eyes
And the world is waking up
She has a rhythm
Oh believe me, I ain't lyin'
She's a woman
She's a lady in the evening time
When the stars are in the skies
That's the time she changes back into a kitten
Oh believe me, I ain't lyin'

[Verse 3]
She's my baby
And she comes out at night
She's takin' me by surprise, yes, she's my baby
Ooh like gravy, yeah down to the last drop
I keep mopping it up, mopping it up, yeah, she's my baby

[Solo]

[Outro]
Ooh like gravy, down to the last drop
I keep mopping it up, mopping it up, yeah, she's my baby
Ooh like gravy, down to the last drop
I keep mopping it up, mopping it up, yeah, she's my baby
Ooh like gravy, down to the last drop
I keep mopping it up, mopping it up


Verse 1 :
G|---------------------------------|---------------------------------|
D|----0---2---3--------------------|3---2---1---0--------------------|
A|3--------------------------------|---------------------------------|
E|---------------------------------|----------------------------3----|

G|---------------------------------|---------------------------------|
D|---------------------------------|---------------------------------|
A|----------------3----------------|----------------3----------------|
E|----------------------------3----|---------------------------------|

G|---------------------------------|---------------------------------|
D|----0---2---3--------------------|3---2---1---0--------------------|
A|3--------------------------------|---------------------------------|
E|---------------------------------|----------------------------3----|

G|---------------------------------|---------------------------------|
D|---------------------------------|---------------------------------|
A|----------------3----------------|---------------------------------|
E|---------------------------------|---------------------------------|

G|----------------|
D|-----------2----|
A|-------3h5------|
E|----------------|

Chorus : 
G|---------------------------------|---------------------------------|
D|3--------------------------------|3--------------------------------|
A|---------------------------------|---------------------------------|
E|---------------------------------|---------------------------------|

G|---------------------------------|---------------------------------|
D|2--------------------------------|1--------------------------------|
A|---------------------------------|---------------------------------|
E|---------------------------------|---------------------------------|

G|---------------------------------|---------------------------------|
D|---------------------------------|---------------------------------|
A|5--------------------------------|---------------------------------|
E|---------------------------------|3--------------------------------|

G|---------------------------------|---------------------------------|
D|---------------------------------|----------------0-------2--------|
A|3--------------------------------|3--------------------------------|
E|---------------------------------|---------------------------------|

G|---------------------------------|---------------------------------|
D|3--------------------------------|3--------------------------------|
A|---------------------------------|---------------------------------|
E|---------------------------------|---------------------------------|

G|---------------------------------|---------------------------------|
D|2--------------------------------|1--------------------------------|
A|---------------------------------|---------------------------------|
E|---------------------------------|---------------------------------|

G|---------------------------------|---------------------------------|
D|----------------0---2---3---4----|5--------------------------------|
A|5--------------------------------|---------------------------------|
E|---------------------------------|--------3------------------------|

Verse 2 :
G|---------------------------------|---------------------------------|
D|--------------------0---2---3----|----------------3---2---1---0----|
A|--------3-------3----------------|---------------------------------|
E|---------------------------------|---------------------------------|

G|---------------------------------|---------------------------------|
D|---------------------------------|---------------------------------|
A|---------------------------------|3--------------------------------|
E|------------3--------------------|------------3--------------------|

G|---------------------------------|---------------------------------|
D|--------------------0---2---3----|----------------3---2---1---0----|
A|3---------------3----------------|---------------------------------|
E|---------------------------------|---------------------------------|

G|---------------------------------|---------------------------------|
D|---------------------------------|----------------------------2----|
A|---------------------------------|3-----------------------3h5------|
E|------------3--------------------|---------------------------------|

Chorus : 
G|---------------------------------|---------------------------------|
D|3--------------------------------|3--------------------------------|
A|---------------------------------|---------------------------------|
E|---------------------------------|---------------------------------|

G|---------------------------------|---------------------------------|
D|2--------------------------------|1--------------------------------|
A|---------------------------------|---------------------------------|
E|---------------------------------|---------------------------------|

G|---------------------------------|---------------------------------|
D|---------------------------------|---------------------------------|
A|5--------------------------------|---------------------------------|
E|---------------------------------|3--------------------------------|

G|---------------------------------|---------------------------------|
D|---------------------------------|----------------0-------2--------|
A|3--------------------------------|3--------------------------------|
E|---------------------------------|---------------------------------|

G|---------------------------------|---------------------------------|
D|3--------------------------------|3--------------------------------|
A|---------------------------------|---------------------------------|
E|---------------------------------|---------------------------------|

G|---------------------------------|---------------------------------|
D|2--------------------------------|1--------------------------------|
A|---------------------------------|---------------------------------|
E|---------------------------------|---------------------------------|

G|---------------------------------|---------------------------------|
D|----------------0-0-2---3---4----|5--------------------------------|
A|5--------------------------------|---------------------------------|
E|---------------------------------|--------3------------------------|

Verse 3:
G|---------------------------------|---------------------------------|
D|--------------------0---2---3----|----------------3---2---1---0----|
A|--------3-------3----------------|---------------------------------|
E|---------------------------------|---------------------------------|

G|---------------------------------|---------------------------------|
D|---------------------------------|---------------------------------|
A|---------------------------------|3--------------------------------|
E|------------3--------------------|------------3--------------------|

G|---------------------------------|---------------------------------|
D|--------------------0---2---3----|----------------3---2---1---0----|
A|3---------------3----------------|---------------------------------|
E|---------------------------------|---------------------------------|

G|---------------------------------|---------------------------------|
D|---------------------------------|------------------------0---2----|
A|---------------------------------|3-------------------3------------|
E|------------3--------------------|---------------------------------|

Solo :
G|---------------------------------|---------------------------------|
D|3---2---1---0--------------------|------------------------0---2----|
A|----------------------------3----|--------------------3------------|
E|----------------3---3------------|---------------------------------|

G|---------------------------------|---------------------------------|
D|3---2---1---0--------------------|------------------------0---2----|
A|----------------------------3----|--------------------3------------|
E|----------------3---3------------|---------------------------------|

G|---------------------------------|---------------------------------|
D|3---2---1---0--------------------|------------------------0---2----|
A|----------------------------3----|--------------------3------------|
E|----------------3---3------------|---------------------------------|

G|---------------------------------|---------------------------------|
D|3---2---1---0--------------------|---------------------------------|
A|---------------------------------|---------------------------------|
E|--------------------3------------|---------------------------------|

G|---------------------------------|
D|---------------------------------|
A|---------------------------------|
E|---------------------------------|

G|---------------------------------|---------------------------------|
D|--------------------0---2---3----|----------------3---2---1---0----|
A|3---------------3----------------|---------------------------------|
E|---------------------------------|---------------------------------|

G|---------------------------------|---------------------------------|
D|---------------------------------|---------------------------------|
A|---------------------------------|3--------------------------------|
E|------------3--------------------|------------3--------------------|

Outro :
G|---------------------------------|---------------------------------|
D|--------------------0---2---3----|----------------3---2---1---0----|
A|3---------------3----------------|---------------------------------|
E|---------------------------------|---------------------------------|

G|---------------------------------|---------------------------------|
D|---------------------------------|---------------------------------|
A|---------------------------------|3--------------------------------|
E|------------3--------------------|---------------------------------|
Suggest correction
Give kudos to tab author, rate the tab!
1 2 3 4 5
comments
print report bad tab
guest
You may want to rate the tab now too:
select rating
Wanna post a correction for this tab? Suggest correction