Oops, an error
Loading. Please wait.

Simple As That Bass Tab

40 views 1 this week
no commentswrite comment
1 2 3 4 5
3 more votes to show rating
add to favorites
launch autoscroll
font size
0
reset
guitar tuner
Autoscroll
slow
fast
+/-
esc
set tempo
stop
Help us to improve Ultimate-Guitar.com Take our survey!
×
Verse 1 :
G|---------------------------------|---------------------------------|
D|---------------------------------|---------------------------------|
A|---------------------------------|---------------------------------|
E|0--------------------------------|0--------------------------------|

G|---------------------------------|---------------------------------|
D|5--------------------------------|5--------------------------------|
A|---------------------------------|---------------------------------|
E|---------------------------------|---------------------------------|

G|---------------------------------|---------------------------------|
D|7--------------------------------|7--------------------------------|
A|---------------------------------|---------------------------------|
E|---------------------------------|-----------------------------0---|

G|---------------------------------|---------------------------------|
D|---------------------------------|---------------------------------|
A|7--------------------------------|3-------2------------------------|
E|---------------------------------|----------------3----------------|

Chorus :
G|---------------------------------|---------------------------------|
D|---------------------------------|---------------------------------|
A|---------------------------------|3-------2------------------------|
E|0--------------------------------|----------------3----------------|

G|---------------------------------|---------------------------------|
D|---------------------------------|---------------------------------|
A|---------------------------------|3-------2------------------------|
E|0--------------------------------|----------------3-------3--------|

G|---------------------------------|---------------------------------|
D|---------------------------------|---------------------------------|
A|---------------------------------|3-------2------------------------|
E|0--------------------------------|----------------3----------------|

G|---------------------------------|---------------------------------|
D|-------------------------5-------|7--------------------------------|
A|5--------------------------------|---------------------------------|
E|---------------------------------|-------------------------5---3---|

G|---------------------------------|---------------------------------|
D|---------------------------------|---------------------------------|
A|---------------------------------|---------------------------------|
E|0--------------------------------|0----------------------------7---|

Verse 2 :
G|---------------------------------|---------------------------------|
D|---------------------------------|---------------------------------|
A|---------------------------------|---------------------------------|
E|0--------------------------------|0--------------------------------|

G|---------------------------------|---------------------------------|
D|---------------------------------|---------------------------------|
A|---------------------------------|----------------5----------------|
E|3--------------------------------|3--------------------------------|

G|---------------------------------|---------------------------------|
D|7--------------------------------|7--------------------------------|
A|---------------------------------|-------------------------7-------|
E|---------------------------------|---------------------------------|

G|---------------------------------|---------------------------------|
D|---------------------------------|---------------------------------|
A|---------------------------------|3-------2------------------------|
E|0--------------------------------|----------------3----------------|

Chorus :
G|---------------------------------|---------------------------------|
D|---------------------------------|---------------------------------|
A|---------------------------------|3-------2------------------------|
E|0--------------------------------|----------------3----------------|

G|---------------------------------|---------------------------------|
D|---------------------------------|---------------------------------|
A|---------------------------------|3-------2------------------------|
E|0--------------------------------|----------------3----------------|

G|---------------------------------|---------------------------------|
D|---------------------------------|---------------------------------|
A|7--------------------------------|3-------2------------------------|
E|---------------------------------|----------------3----------------|

G|---------------------------------|---------------------------------|
D|-------------------------5-------|7--------------------------------|
A|5--------------------------------|---------------------------------|
E|---------------------------------|-------------------------5---3---|

G|---------------------------------|---------------------------------|
D|----------------9----------------|---------------------------------|
A|---------------------------------|----------------7----------------|
E|0--------------------------------|0-------7------------------------|

G|---------------------------------|---------------------------------|
D|---------------------------------|---------------------------------|
A|5--------------------------------|---------------------------------|
E|---------------------------------|5------------------------5---3---|

G|---------------------------------|---------------------------------|
D|-----------------9-------7---5---|---------------------------------|
A|---------------------------------|---------------------------------|
E|0--------------------------------|0--------------------------------|

G|---------------------------------|---------------------------------|
D|---------------------------------|7--------------------------------|
A|5------------------------7-------|---------------------------------|
E|---------------------------------|-------------------------5---7---|

G|---------------------------------|---------------------------------|
D|---------------------------------|--------9---------------9--------|
A|---------------------------------|7---------------7----------------|
E|0---------------7--------5---3---|---------------------------------|

G|---------------------------------|---------------------------------|
D|---------------------------------|7--------------------------------|
A|5------------------------7-------|---------------------------------|
E|---------------------------------|-------------------------5---3---|

G|---------------------------------|---------------------------------|
D|---------------------------------|--------9------------------------|
A|---------------------------------|7--------------------------------|
E|0---------------7----------------|----------------0----------------|

G|---------------------------------|---------------------------------|
D|---------------------------------|7--------------------------------|
A|5------------------------7-------|-------------------------5-------|
E|---------------------------------|---------------------------------|

G|---------------------------------|---------------------------------|
D|---------------------------------|--------9------------------------|
A|---------------------------------|7--------------------------------|
E|0---------------7----------------|---------------0-----------------|

Verse 3 :
G|---------------------------------|---------------------------------|
D|---------------------------------|---------------------------------|
A|---------------------------------|---------------------------------|
E|0--------------------------------|0--------------------------------|

G|---------------------------------|---------------------------------|
D|---------------------------------|---------------------------------|
A|---------------------------------|---------------------------------|
E|3--------------------------------|3--------------------------------|

G|---------------------------------|---------------------------------|
D|---------------------------------|---------------------------------|
A|---------------------------------|---------------------------------|
E|5--------------------------------|5------------------------7---\---|

G|---------------------------------|---------------------------------|
D|---------------------------------|---------------------------------|
A|---------------------------------|3-------2------------------------|
E|0--------------------------------|----------------3----------------|

Chorus :
G|---------------------------------|---------------------------------|
D|---------------------------------|---------------------------------|
A|---------------------------------|3-------2------------------------|Right here short
E|0--------------------------------|----------------3----------------|notes on these 3 notes

G|---------------------------------|---------------------------------|
D|---------------------------------|---------------------------------|
A|---------------------------------|3-------2------------------------|
E|0--------------------------------|----------------3----------------|

G|---------------------------------|---------------------------------|
D|---------------------------------|---------------------------------|
A|---------------------------------|3-------2------------------------|
E|0--------------------------------|----------------3----------------|

G|---------------------------------|---------------------------------|
D|-------------------------5-------|7--------------------------------|
A|5--------------------------------|---------------------------------|
E|---------------------------------|-------------------------5---3---|

G|---------------------------------|---------------------------------|
D|---------------------------------|--------9------------------------|
A|---------------------------------|7--------------------------------|
E|0---------------7----------------|----------------0----------------|

G|---------------------------------|---------------------------------|
D|---------------------------------|7--------------------------------|
A|5--------------------------------|---------------------------------|
E|-------------------------3-------|-------------------------3-------|

G|---------------------------------|---------------------------------|
D|---------------------------------|--------9------------------------|
A|---------------------------------|7--------------------------------|
E|0---------------7----------------|----------------0----------------|

G|---------------------------------|---------------------------------|
D|---------------------------------|7--------------------------------|
A|5--------------------------------|---------------------------------|
E|---------------------------------|---------------------------------|

G|---------------------------------|---------------------------------|
D|---------------------------------|--------9------------------------|
A|7----------------------------5---|7---------------7----------------|
E|---------------------------------|---------------------------------|

G|---------------------------------|---------------------------------|
D|---------------------------------|7--------------------------------|
A|5--------------------------------|---------------------------------|
E|---------------------------------|-------------------------5---3---|

G|---------------------------------|---------------------------------|
D|---------------------------------|--------9------------------------|
A|---------------------------------|7--------------------------------|
E|0---------------7----------------|----------------0----------------|

G|---------------------------------|---------------------------------|
D|---------------------------------|7------------------------7-------|
A|5--------------------------------|---------------------------------|
E|---------------------------------|---------------------------------|

G|---------------------------------|---------------------------------|
D|---------------------------------|----------------9----------------|
A|---------------------------------|7--------------------------------|
E|0---------------7----------------|---------------------------------|

G|---------------------------------|---------------------------------|
D|-------------------------5-------|7--------------------------------|
A|5--------------------------------|---------------------------------|
E|---------------------------------|-------------------------5---3---|

G|---------------------------------|---------------------------------|
D|---------------------------------|--------9------------------------|
A|---------------------------------|7--------------------------------|
E|0---------------7----------------|----------------0--------3-------|

Bridge 1 :
G|---------------------------------|---------------------------------|
D|---------------------------------|---------------------------------|
A|---------------------------------|3-------2------------------------|
E|0--------------------------------|----------------3--------3-------|

G|---------------------------------|---------------------------------|
D|---------------------------------|---------------------------------|
A|---------------------------------|3-------2------------------------|
E|0--------------------------------|----------------3----------------|

G|---------------------------------|---------------------------------|
D|---------------------------------|---------------------------------|
A|---------------------------------|3-------2------------------------|
E|0--------------------------------|----------------3----------------|

G|---------------------------------|---------------------------------|
D|---------------------------------|---------------------------------|
A|---------------------------------|3-------2------------------------|
E|0--------------------------------|----------------3----------------|

G|---------------------------------|---------------------------------|
D|---------------------------------|---------------------------------|
A|---------------------------------|3-------2------------------------|
E|0--------------------------------|----------------3----------------|

Chorus :
G|---------------------------------|---------------------------------|
D|-------------------------5-------|7--------------------------------|
A|5--------------------------------|---------------------------------|
E|---------------------------------|-------------------------5---3---|

G|---------------------------------|---------------------------------|
D|---------------------------------|---------------------------------|
A|---------------------------------|---------------------------------|
E|0------------------------5---3---|0-----------0---3-------0--------|

G|---------------------------------|---------------------------------|
D|-------------------------5-------|7--------------------------------|
A|5--------------------------------|---------------------------------|
E|---------------------------------|-------------------------5---3---|

G|---------------------------------|---------------------------------|
D|---------------------------------|---------------------------------|
A|---------------------------------|---------------------------------|
E|0---------------7----------------|0---------------7-------7--------|

G|---------------------------------|---------------------------------|
D|-------------------------5-------|7--------------------------------|
A|5--------------------------------|---------------------------------|
E|---------------------------------|-------------------------5---3---|

G|---------------------------------|---------------------------------|
D|---------------------------------|--------9------------------------|
A|---------------------------------|----------------7----------------|
E|0---------------7----------------|0--------------------------------|

Bridge 2 :
G|---------------------------------|---------------------------------|
D|---------------------------------|---------------------------------|
A|---------------------------------|3-----------3---2----------------|
E|0--------------------------------|------------------------3--------|

G|---------------------------------|---------------------------------|
D|---------------------------------|---------------------------------|
A|---------------------------------|3-----------3---2----------------|
E|0--------------------------------|------------------------3--------|

G|---------------------------------|---------------------------------|
D|---------------------------------|---------------------------------|
A|---------------------------------|3-----------3---2----------------|
E|0--------------------------------|------------------------3--------|

G|---------------------------------|---------------------------------|
D|---------------------------------|---------------------------------|
A|---------------------------------|3-----------3---2----------------|
E|0--------------------------------|------------------------3--------|

G|---------------------------------|---------------------------------|
D|---------------------------------|---------------------------------|
A|---------------------------------|3-----------3---2----------------|
E|0--------------------------------|------------------------3--------|

G|---------------------------------|---------------------------------|
D|---------------------------------|---------------------------------|
A|---------------------------------|3-----------3---2----------------|
E|0--------------------------------|------------------------3--------|

G|---------------------------------|---------------------------------|
D|---------------------------------|---------------------------------|
A|---------------------------------|3-----------3---2----------------|
E|0--------------------------------|------------------------3--------|

Outro :
G|---------------------------------|---------------------------------|
D|---------------------------------|---------------------------------|
A|---------------------------------|---------------------------------|
E|0------------------------5-------|5--------------------------------|

G|---------------------------------|---------------------------------|
D|---------------------------------|---------------------------------|
A|---------------------------------|---------------------------------|
E|0------------------------5---3---|0------------------------5-------|

G|---------------------------------|---------------------------------|
D|---------------------------------|---------------------------------|
A|---------------------------------|---------------------------------|
E|0------------------------5-------|0------------------------5-------|

G|---------------------------------|---------------------------------|
D|---------------------------------|---------------------------------|
A|---------------------------------|3-----------3---2----------------|
E|0--------------------------------|------------------------3--------|

G|---------------------------------|---------------------------------|
D|---------------------------------|---------------------------------|
A|---------------------------------|---------------------------------|
E|0--------------------------------|0-------2---4------------5---3---|

G|---------------------------------|---------------------------------|
D|---------------------------------|---------------------------------|
A|---------------------------------|3-------2------------------------|
E|0--------------------------------|------------------------3--------|

G|---------------------------------|---------------------------------|
D|---------------------------------|---------------------------------|
A|---------------------------------|5------------0---0-----------5---|
E|0--------------------------------|---------------------------------|

G|---------------------------------|---------------------------------|
D|---------------------------------|---------------------------------|
A|7--------------------------------|-------------------------2-------|
E|----------------0----------------|-------------0---3---------------|

G|---------------------------------|---------------------------------|
D|---------------------------------|7--------------------------------|
A|5--------------------------------|---------------------------------|
E|---------------------------------|-------------------------5---3---|

G|---------------------------------|---------------------------------|
D|---------------------------------|-------------------------9-------|
A|---------------------------------|-----------------7---------------|
E|0---------------7----------------|7---7----------------------------|


G|---------------------------------|---------------------------------|
D|---------------------------------|---------------------------------|
A|---------------------------------|3-----------2---2----------------|
E|0--------------------------------|------------------------3--------|


G|---------------------------------|---------------------------------|
D|---------------------------------|---------------------------------|
A|---------------------------------|----3---2---2--------------------|
E|0--------------------------------|----------------3---3------------|

G|---------------------------------|---------------------------------|
D|---------------------------------|---------------------------------|
A|---------------------------------|----3---2---2--------------------|
E|0--------------------------------|----------------3---3------------|
Suggest correction
Give kudos to tab author, rate the tab!
1 2 3 4 5
comments
print report bad tab
guest
You may want to rate the tab now too:
select rating
Wanna post a correction for this tab? Suggest correction